Guitar Tabs, Chords and Lyrics
Update 25:10. 13:00. Site is back up running again. Songbooks are recovered. Woring on getting search back up..


Mine  Taproot

Taproot - Mine
Album: Welcome
bass tab
by : doky 2007
taquilleros_de_sudamerica_maroyu_el_grupo_tropical_del_momento@hotmail.com
5-stringed bass
[G] [D] [A] [E] [B]  
INTRO
 
 G-|---------------------------|
 D-|---------------------------|
 A-|---------------------------|
 E-|---------------------------|
 B-|-4--4--4---4----4--4--4----|

VERSO 1
 
 G-|--------------------|-----------|-----------------------------|
 D-|--------5-----------|-----------|-----------5---------5-------|
 A-|-5----5-----5-------|-53--------|---5-----5-----5---------5---|
 E-|----3-----3-----3---|----53-----|-3-----3-----3-----3---------|
 B-|--------------------|-------3---|-----------------------------|
 G-|-------------------------------|--------------------------|--------|
 D-|----------------5---75---------|-----------5---5-555------|--------|
 A-|--------5--------------7-------|---5-----5-----------5555-|--------|
 E-|------5-----3------------3-----|-3-----3-----3------------|--------|
 B-|-3---3----3----------------3---|--------------------------|-444444-|

CORO
 
 G-|--------------|---|--------------|---|--------------|
 D-|--------------|---|--------------|---|--------------|
 A-|--------------|---|--------------|---|--------------|
 E-|-5-33-5-33-11-|---|-5-33-5-33----|---|-5-33-5-33----|
 B-|--------------|---|-----------33-|---|-----------11-|

( Tab from: http://[+]www.guitartabs.cc/t[+]abs/t/taproot/mine_btab_ver_2.html )
VERSO 2
 
 G-|---------------------|-----------|-------------------------------|
 D-|---------5-----------|-----------|-------------5---------5-------|
 A-|-------5-----5-------|-53--------|-----5-----5-----5---------5---|
 E-|-----3-----3-----3---|----53-----|-3-------3-----3-----3---------|
 B-|-3-------------------|-------3---|-------------------------------|
 G-|-------------------------------------|---------------------------------|
 D-|---------------------------------5---|-------------------------5-------|
 A-|---5---5---5---5-----3---------------|-------5-------5-------3-----5---|
 E-|-------------------------5---3-------|-----3-------5---0-3-------------|
 B-|-3---3---3---3-----3---3---3---3-----|-3---------3---------------------|
 G-|--------|
 D-|--------|
 A-|--------|
 E-|--------|

B-|-444444-|
SOLO
 
 G-|---------------|-----5---5---|---------------|-------------|---|---------|
 D-|-------6/8-5---|-------5---5-|-------6/8-5---|-------------|---|---------|
 A-|-6---6-------6-|-3-----------|-6---6-------6-|-3-----------|---|---------|
 E-|---6-----------|---3---------|---6-----------|---3---3---3-|---|---------|
 B-|---------------|-------------|---------------|-----1---1---|---|-1---1---|

[+] 
VERSO 3
 
 G-|-------------------|
 D-|-------------------|
 A-|- = VERSO 2 -------|
 E-|-------------------|
 B-|-------------------|

FIN
 
 G-|------------|
 D-|------------|
 A-|------------|
 E-|------------|
 B-|-1----------|

Ma-mando saludos Alastorezaga, Al Gato, Al Jhose y A El Antoney, porque una vez han ido a mi casa
a continuar un proyecto antigŁo, de colegio, que se llama Aroma A Marberia. hemos intentado sacar
un temita pero no se podia porque estaban chupando con su refresco con cafe, bien tara.
pero hemos hecho tareses con la bateria, casi hasta destruirlo. ni siquiera hemos tocado el exito
"a mi no me nadies".
doky2007

Important: The song above is NOT stored on the Chordie server. The original song is hosted at www.guitartabs.cc. Chordie works as a search engine and provides on-the-fly formatting. Chordie does not index songs against artists'/composers' will. To remove this song please click here.

Text color:
Chord color:
Chord grids: 
Font size:    
Page size: 

A B D E G
Rate #1 of 1 versions

Jango Player

Login - add to songbook

SHARE PAGE  




You need to log in to post comments