Guitar Tabs, Chords and Lyrics
Major upgrade!! After one year development the new version of Chordie is now online! Please give feedback.


Love Story  Taylor Swift

CAPO 2nd FRET
Intro :
C (PLAY PALM MUTED)
 
 ------------------------------|
 ----3-3-1-0-1---3-3-1-0-1-----|
 ---0-0---------0-0------------|
 --2-----------2---------------|
 ------------------------------|
 ------------------------------|

[G]  
 
 ------------------------------|
 ----3-3-1-0-1---3--3-1-0-1----|
 ---0-0---------0-0------------|
 --0-----------0---------------|
 ------------------------------|
 ------------------------------|

[Am]  
 
 ------------------------------|
 ----3-3-1-0-1---3-3-1-0-1-----|
 ---2-2---------2-2------------|
 --2-----------2---------------|
 ------------------------------|
 ------------------------------|

[F]  
 
 ------------------------------|
 ----3-3-1-0-1---3-3-1-0-1-----|
 ---2-2---------2-2------------|
 --3-----------3---------------|
 ------------------------------|
 ------------------------------|

( Play chords, or play the intro for this part)
[C]We were both young when i first saw you
[F]I close my eyes and the flashback starts
[Am]Im standing there on a ba[F]lcony of summer air
[C]See the lights, See the party the ball gowns
I see y[F]ou make your way through the crowd
You say he[Am]llo
Little did i k[G]now
(Play chords In this part)
That you we[F]re romeo you were throw[G]ing pebbles
And my dad[Am]dy said stay away from Ju[C]liet
And i was cr[F]ying on the staircase
Be[G]gging you please don't [Am]go, and i said
C/G (Strumming Pattern: D U D U D U..)
Romeo take me somewhere we can be alone
I[G]'ll be waiting all theres left to do is run
Y[Am]ou'll be the prince and i'll be the princess
I[F]ts a love story b[G]aby just say yes
C (PLAY PALM MUTED)
 
 ------------------------------|
 ----3-3-1-0-1---3-3-1-0-1-----|
 ---0-0---------0-0------------|
 --2-----------2---------------|
 ------------------------------|
 ------------------------------|

(Strumming Pattern: D U D U D U D U..)
[C]So i sneak out to the garden to see you
W[F]e keep quite because we're dead if they know
S[Am]o close your eyes
Let?s ke[G]ep this down for a little while
Cause you we[F]re Romeo I was a sca[G]rlet letter
and my da[Am]ddy said stay away from Ju[C]liet
But you w[F]ere everything to me
and i was be[G]gging you please don't [Am]go and i said
R[C/G]omeo take me somewhere we can be alone
I[G]'ll be waiting all theres left to do is run
Y[Am]ou be the prince i'll be the princess
I[F]ts a love story b[G]aby just say yes[C]
Ro[C]meo save me, try to tell me how it is
Th[G]is love is difficult, but its real,
Sa[Am]ve me from the breakdown, make it out of looseness
I[F]ts a love story b[G]aby just say yes, oh
Solo:
[C] [G] [Am] [F]  
I got tired of wa[Am]iting, [F] wondering if y[C]ou were ever co[G]ming around
My faith in y[Am]ou was fad[F]ing
Then i met you on the out[C]skirts of to[G]wn and i said
[C]Romeo save me i've been feeling so alone
C (PLAY PALM MUTED)
 
 ------------------------------|
 ----3-3-1-0-1---3-3-1-0-1-----|
 ---0-0---------0-0------------|
 --2-----------2---------------|
 ------------------------------|
 ------------------------------|

I[G] keep waiting for you but you never come
[G]  
 
 ------------------------------|
 ----3-3-1-0-1---3--3-1-0-1----|
 ---0-0---------0-0------------|
 --0-----------0---------------|
 ------------------------------|
 ------------------------------|

Is t[Am]his in my head, i don't know what to think
He n[F]elt to the ground and pu[G]lled out a ring and said
Ma[D]rry me Juliet you'll never have to be alone
I l[A]ove you and thats all I really know
I t[Bm]alked to your dad go pick out a white dress
I[G]ts a love story ba[A]by just say y[D]es
[D]Oh, [A]oh, [Bm]yes
We were v[G]ery young when i first saw y[D]ou

Important: The song above is NOT stored on the Chordie server. The original song is hosted at www.guitartabs.cc. Chordie works as a search engine and provides on-the-fly formatting. Chordie does not index songs against artists'/composers' will. To remove this song please click here.

Text color:
Chord color:
Chord grids: 
Font size:    
Page size: 

A Am Bm C C/G D F G
Rate #3 of 24 versions

Jango Player

Login - add to songbook

SHARE PAGE  




You need to log in to post comments