Guitar Tabs, Chords and Lyrics
Server problems seems to be fixed. Chordie has been experiencing problems with songs disappearing. These issues now seems to be fixed, but still verifying the fix. If you find anything strange, please email admin@chordie.com.


Every Hungry Woman  The Allman Brothers Band

EVERY HUNGRY WOMAN
As recorded by The Allman Brothers Band
(From the 1969 Album THE ALLMAN BROTHERS BAND)
Words and Music by Gregg Allman
0 7 [E5]9 9 x x x 7[E7+9] 6 7 8 x 3 5 [G5]5 x x x 5 7 [A5]7 x x x
x 2 [B5]4 4 x x 2 4 [F#]4 3 2 2
Gtr I (E A D G B E) - 'Untitled'
Gtr II (E A D G B E) - 'Untitled'
Gtr III (E A D G B E) - 'Untitled'
Gtr IV (E A D G B E) - 'Untitled'
Intro
Q=96
[D] [E] [D] 
[4/4] Gtr I
S E S E E S S S S Q E E Q S S S S +E E
 
 |-5s7-7-7---7----------|--------------------5-|
 |-7s9-9-9---9---5---3--|-3s5-3--3s5s3-------7-|
 |-7s9-9-9---9---6---4--|-4s6-4--4s6s4-------7-|
 |----------------------|--------------6-(6)---|
 |----------------------|----------------------|
 |----------------------|----------------------|

|
| W W
 
 |----------------------|----------------------|
 |----------------------|----------------------|
 |----------------------|----------------------|
 |----------------------|----------------------|
 |----------------------|----------------------|
 |----------------------|----------------------|

|
| W W
 
 |----------------------|----------------------|
 |----------------------|----------------------|
 |----------------------|----------------------|
 |----------------------|----------------------|
 |----------------------|----------------------|
 |----------------------|----------------------|

S [E]E S E E S S S S Q E E Q S S S S +Q
 
 |-5s7-7-7---7----------|-----------------------|
 |-7s9-9-9---9---5---3--|-3s5-3--3s5s3----------|
 |-7s9-9-9---9---6---4--|-4s6-4--4s6s4----------|
 |----------------------|--------------6-(6)----|
 |----------------------|-----------------------|
 |----------------------|-----------------------|

|
| Gtr II
| W H Q E E
 
 |----------------------|-----------------------|
 |----------------------|--------------------15-|
 |----------------------|----------------16-----|
 |----------------------|-----------------------|
 |----------------------|-----------------------|
 |----------------------|-----------------------|

|
| Gtr III
| W H Q E E
 
 |----------------------|-----------------------|
 |----------------------|-----------------------|
 |----------------------|-----------------4---7-|
 |----------------------|-----------------------|
 |----------------------|-----------------------|
 |----------------------|-----------------------|

N.C.
Gtr I
W H E E Q
 
 |-------------------------|-----------13\----10\--7\--|
 |-------------------------|-----------13\----10\--7\--|
 |-------------------------|---------------------------|
 |-------------------------|---------------------------|
 |-------------------------|---------------------------|
 |-------------------------|---------------------------|

|
| Gtr II
| ~~~~~~~~~~~~~~~~ ~~~~~~~~ ~~~
| Q Q Q E E Q Q E +E Q
 
 |-------------------------|---------------------------|
 |-17----17----17-------15-|-17----15------------------|
 |-------------------16----|-----------14b15r(14)-12---|
 |-------------------------|---------------------------|
 |-------------------------|---------------------------|
 |-------------------------|---------------------------|

|
| Gtr III
| ~~~~~~~~~~~~~~~~ ~~~~~~~~ ~~~
| Q Q Q E E Q Q E +E Q
 
 |-------------------------|---------------------------|
 |-------------------------|---------------------------|
 |--7b9---7b9---7b9---4--7-|--7b9---7------------------|
 |-------------------------|------------7b8r==(7)--5---|
 |-------------------------|---------------------------|
 |-------------------------|---------------------------|

W
 
 |----------------------------------|
 |----------------------------------|
 |----------------------------------|
 |----------------------------------|
 |----------------------------------|
 |----------------------------------|

|
| ~~
| S S S S Q S S S S E E
 
 |----------------------------------|
 |----------------------------------|
 |-------------12-------------14-12-|
 |-12h14-14-14-----12h14---14-------|
 |----------------------------------|
 |----------------------------------|

|
| S S S S Q S S S S E E
 
 |----------------------------------|
 |--------------8-------------------|
 |--------------7--------------9--7-|
 |--7h=9-----9------7h=9----9--7--7-|
 |----------------------------------|
 |----------------------------------|

Gtr II
~~~ ~~ ~~
S S S S E. S E E E E
 
 |---------------------------------|
 |---------------------------------|
 |-------------12--12--------------|
 |-12h14-14-14----------14-12-14---|
 |---------------------------------|
 |---------------------------------|

|
| Gtr III
| ~~
| S S S S E. S A E E E E
 
 |---------------------------------|
 |--------------8---x--------------|
 |--------------7---x--------------|
 |--7h=9-----9--------9s=7--5------|
 |-----------------------------7---|
 |---------------------------------|

~~~[3/4]
S S S S E. S S S S S E E S S S S E. S S +S E
 
 |-------------------------------------|--------------------------------|
 |-------------------------------------|--------------------------------|
 |-------------12--12------------14-12-|------------12--x-14b16r(14)-12-|
 |-12h14-14-14--------12h14---14-------|-12h14---14---------------------|
 |-------------------------------------|--------------------------------|
 |-------------------------------------|--------------------------------|

|
| S S S S E. S S S S S E E S S S S E. S S +S E
 
 |-------------------------------------|--------------------------------|
 |--------------8---8------------------|-------------8--x---------------|
 |--------------7---7-------------9--7-|-------------7--x---------------|
 |--7h=9-----9---------7h=9----9--7--7-|--7h=9----9--------7b9r==(7)--5-|
 |-------------------------------------|--------------------------------|
 |-------------------------------------|--------------------------------|

[E5] [E7+9] [E5] [E7+9] [G5] [A5] 
[4/4] Gtr IV
E E E S S S S S S S S E E S S S S S S E Q E
| | | | | | | | | | | | |
/ / x / / / / / / / / / /
Gtr II
~~ ~~~~~
Q Q H H E Q.
 
 |--------------------------|-----------------12-------|
 |--------------------------|-----------------15b17----|
 |--------------------------|--------------------------|
 |-14-----------------------|--------------------------|
 |--------------------------|--------------------------|
 |--------------------------|--------------------------|

|
| Gtr III
| ~~~~~
| Q Q H H E Q.
 
 |--------------------------|--------------------------|
 |--------------------------|------------------5-------|
 |--------------------------|------------------7b9-----|
 |--------------------------|--------------------------|
 |--7-----------------------|--------------------------|
 |--------------------------|--------------------------|

[E5]E E [E7+9]E S S S S S S S S E [E5]E S [E7+9]S S S S S E [G5] Q [A5]E
| | | | | | | | | | | | |
/ / x / / / / / / / / / /
~~~~~
W H E Q.
 
 |-------------------------|-----------------12-------|
 |-------------------------|-----------------15b17----|
 |-------------------------|--------------------------|
 |-------------------------|--------------------------|
 |-------------------------|--------------------------|
 |-------------------------|--------------------------|

|
| ~~~~~
| W H E Q.
 
 |-------------------------|--------------------------|
 |-------------------------|------------------5-------|
 |-------------------------|------------------7b9-----|
 |-------------------------|--------------------------|
 |-------------------------|--------------------------|
 |-------------------------|--------------------------|

Verse
[E5]E E [E7+9]E S S S S S S S S E [E5]E S [E7+9]S S S S S E [G5]Q [A5]E
| | | | | | | | | | | | |
/ / x / / / / / / / / / /
Gtr II
~~~
W H E Q.
 
 ||--------------------------|------------------------|
 ||o-------------------------|-----------------5------|
 ||--------------------------|-----------------7b9----|
 ||--------------------------|------------------------|
 ||o-------------------------|------------------------|
 ||--------------------------|------------------------|

[E5]E E [E7+9]E S S S S S S S S E [E5]E S [E7+9]S S S S S E [G5] Q [A5]E
| | | | | | | | | | | | |
/ / x / / / / / / / / / /
W H E Q.
 
 |-------------------------|-----------------12-------|
 |-------------------------|-----------------15b17----|
 |-------------------------|--------------------------|
 |-------------------------|--------------------------|
 |-------------------------|--------------------------|
 |-------------------------|--------------------------|

[E5]E E [E7+9]E S S S S S S S S E [E5]E S [E7+9]S S S S S E [G5]Q E[A5]
| | | | | | | | | | | | |
/ / x / / / / / / / / / /
~~~
W H E Q.
 
 |-------------------------|-------------------------|
 |-------------------------|-----------------5-------|
 |-------------------------|-----------------7b9-----|
 |-------------------------|-------------------------|
 |-------------------------|-------------------------|
 |-------------------------|-------------------------|

[E5]E E [E7+9]E S S S S S S S S E [E5]E S [E7+9]S S S S S E [G5] Q E[A5]
| | | | | | | | | | | | |
/ / x / / / / / / / / / /
~~~~~
W H E Q.
 
 |-------------------------|-----------------12-----------|
 |-------------------------|-----------------15b17--------|
 |-------------------------|------------------------------|
 |-------------------------|------------------------------|
 |-------------------------|------------------------------|
 |-------------------------|------------------------------|

Chorus
[A5]Q E E [G5]Q E E [A5]E E E E E E E E
| | | | | | | | | | | | | |
[/] [/] [/] [/] [/] [/] [/] [/] [/] [/] [/] [/] [/] [/]  
W W
 
 |---------------|-----------------|
 |---------------|-----------------|
 |---------------|-----------------|
 |---------------|-----------------|
 |---------------|-----------------|
 |---------------|-----------------|

[E5]E E [E7+9]E S S S S S S S S E [E5]E S [E7+9]S S S S S E [G5] Q [A5] E
| | | | | | | | | | | | |
[/] [/] [/] [/] [/] [/] [/] [/] [/] [/] [/] [/] [/] 
W H E Q +E
 
 |-------------------------|-----------------12------------|
 |-------------------------|-----------------15b17r=(15)---|
 |-------------------------|-------------------------------|
 |-------------------------|-------------------------------|
 |-------------------------|-------------------------------|
 |-------------------------|-------------------------------|

[B5] Q E E E E E E [G5]E E E E [F#]Q. E
| | | | | | | | | | | |
[/] [/] [/] [/] [/] [/] [/] [/] [/] [/] [/] [/]  
~~~
H. Q H Q E E
 
 |------------------|-------------------|
 |-12---------------|----------------15-|
 |------------------|-------------16----|
 |------------------|-------------------|
 |------------------|-------------------|
 |------------------|-------------------|

|
| Gtr III
| W H Q E E
 
 |------------------|-------------------|
 |------------------|-------------------|
 |------------------|--------------4--7-|
 |------------------|-------------------|
 |------------------|-------------------|
 |------------------|-------------------|

1.
N.C.
W W
~~ ~~~ ~~ ~~
S S S S Q S S S S E E S S S S E. S E E E E
 
 |----------------------------------|-----------------------------------|
 |----------------------------------|-----------------------------------|
 |-------------12-------------14-12-|-------------12--12----------------|
 |-12h14-14-14-----12h14---14-------|-12h14-14-14----------14-12-14-----|
 |----------------------------------|-----------------------------------|
 |----------------------------------|-----------------------------------|

|
| ~~
| S S S S Q S S S S E E S S S S E. S a E E E E
 
 |----------------------------------|-----------------------------------|
 |--------------8-------------------|--------------8---x----------------|
 |--------------7--------------9--7-|--------------7---x----------------|
 |--7h=9-----9------7h=9----9--7--7-|--7h=9-----9--------9s=7--5--------|
 |----------------------------------|-----------------------------7-----|
 |----------------------------------|-----------------------------------|

Gtr II[3/4]
~~~
S S S S E. S S S S S E E S S S S E. S S +S E
 
 |-------------------------------------|---------------------------------||
 |-------------------------------------|--------------------------------o||
 |-------------12--12------------14-12-|------------12--x-14b16r(14)-12--||
 |-12h14-14-14--------12h14---14-------|-12h14---14----------------------||
 |-------------------------------------|--------------------------------o||
 |-------------------------------------|---------------------------------||

|
| Gtr III
| S S S S E. S S S S S E E S S S S E. S S +S E
 
 |-------------------------------------|---------------------------------||
 |--------------8---8------------------|-------------8--x---------------o||
 |--------------7---7-------------9--7-|-------------7--x----------------||
 |--7h=9-----9---------7h=9----9--7--7-|--7h=9----9--------7b9r==(7)--5--||
 |-------------------------------------|--------------------------------o||
 |-------------------------------------|---------------------------------||

2.
[4/4] ~~~~~~~~~~~~~~~~ ~~~~~~~~ ~~
Q Q Q E E Q Q E +E Q
 
 |-------------------------|---------------------------|
 |-17----17----17-------15-|-17----15------------------|
 |-------------------16----|-----------14b15r(14)-12---|
 |-------------------------|---------------------------|
 |-------------------------|---------------------------|
 |-------------------------|---------------------------|

|
| ~~~~~~~~~~~~~~~~ ~~~~~~~~ ~~
| Q Q Q E E Q Q E +E Q
 
 |-------------------------|---------------------------|
 |-------------------------|---------------------------|
 |--7b9---7b9---7b9---4--7-|--7b9---7------------------|
 |-------------------------|------------7b8r==(7)--5---|
 |-------------------------|---------------------------|
 |-------------------------|---------------------------|

~~ ~~~ ~~ ~~
S S S S Q S S S S E E S S S S E. S E E E E
 
 |----------------------------------|---------------------------------|
 |----------------------------------|---------------------------------|
 |-------------12-------------14-12-|-------------12--12--------------|
 |-12h14-14-14-----12h14---14-------|-12h14-14-14----------14-12-14---|
 |----------------------------------|---------------------------------|
 |----------------------------------|---------------------------------|

|
| ~~
| S S S S Q S S S S E E S S S S E. S a E E E E
 
 |----------------------------------|---------------------------------|
 |--------------8-------------------|--------------8---x--------------|
 |--------------7--------------9--7-|--------------7---x--------------|
 |--7h=9-----9------7h=9----9--7--7-|--7h=9-----9--------9s=7--5------|
 |----------------------------------|-----------------------------7---|
 |----------------------------------|---------------------------------|

~~~[3/4]
S S S S E. S S S S S E E S S S S E. S S +S E
 
 |-------------------------------------|----------------------------------|
 |-------------------------------------|----------------------------------|
 |-------------12--12------------14-12-|------------12--x-14b16r(14)-12---|
 |-12h14-14-14--------12h14---14-------|-12h14---14-----------------------|
 |-------------------------------------|----------------------------------|
 |-------------------------------------|----------------------------------|

|
| S S S S E. S S S S S E E S S S S E. S S +S E
 
 |-------------------------------------|----------------------------------|
 |--------------8---8------------------|-------------8--x-----------------|
 |--------------7---7-------------9--7-|-------------7--x-----------------|
 |--7h=9-----9---------7h=9----9--7--7-|--7h=9----9--------7b9r==(7)--5---|
 |-------------------------------------|----------------------------------|
 |-------------------------------------|----------------------------------|

Guitar Solo
[E5] [E7+9]  
[4/4] Gtr IV
E E E S S S S S S S S E
| | | | | | |
/ / x / / / /
~~
E. S S S E +E E S S S S
 
 |------------12---15b17====(15)r---15---12----12----|
 |---------12-------------------------------12----12-|
 |-14b16---------------------------------------------|
 |---------------------------------------------------|
 |---------------------------------------------------|
 |---------------------------------------------------|

|
| W
 
 |---------------------------------------------------|
 |---------------------------------------------------|
 |---------------------------------------------------|
 |---------------------------------------------------|
 |---------------------------------------------------|
 |---------------------------------------------------|

[E5] E S [E7+9] S S S S S E [G5] Q [A5] E
| | | | | |
[/] [/] [/] [/] [/] [/] 
|--3--|
S S S S S S S S S S S S S S S E
 
 |-------------------------------------------------|
 |-15----12----------------------------------------|
 |----14----12-14----12----------------------------|
 |----------------14----12-14----12-------------14-|
 |----------------------------14----14-14p12s10----|
 |-------------------------------------------------|

|
| W
 
 |-------------------------------------------------|
 |-------------------------------------------------|
 |-------------------------------------------------|
 |-------------------------------------------------|
 |-------------------------------------------------|
 |-------------------------------------------------|

[E5] E E [E7+9] E S S S S S S S S E
| | | | | |
[/] [/] [/] [/] [/] [/] 
+Q Q H
 
 |----------------------------------------------------------------------------------|
 |----------------------------------------------------------------------------------|
 |----------------------------------------------------------------------------------|
 |-(14)-----------------------------------------------------------------------------|
 |----------------------------------------------------------------------------------|
 |----------------------------------------------------------------------------------|

|
 
 | |------6-------| |-------6--------| |--------6---------| |-------6--------|

| S S S S S S S S S S S S S S S S S S S S S S S S
 
 |----------------------------------------------------------------------------------|
 |--15p12----15p12----15p12----15p12------15p12------15p12------15p12------15p12----|
 |--------12-------12-------12---------12---------12---------12---------12-------12-|
 |----------------------------------------------------------------------------------|
 |----------------------------------------------------------------------------------|
 |----------------------------------------------------------------------------------|

[E5] E S [E7+9]S S S S S E [G5]Q [A5] E
| | | | | | |
/ x / / / / /
H Q E S S
 
 |-------------------------------------------------------|
 |----------------------------------------------12-------|
 |-------------------------------------------------------|
 |-------------------------------------------------------|
 |-------------------------------------------------------|
 |-------------------------------------------------------|

|
| ~~~~~ ~~~~~~
| E Q S S S E. +E +E
 
 |-15b17-15b17-------15-12-------------------------------|
 |-------------------------15b17-15b17====(15)r(15)\-----|
 |-------------------------------------------------------|
 |-------------------------------------------------------|
 |-------------------------------------------------------|
 |-------------------------------------------------------|

[E5] E E [E7+9] E S S S S S S S S E
| | | | | | |
/ / x / / / /
~~~~~~
E. S E. S S +S S S S S E
 
 |-14b16-----14b16-----14b16r(14)-12----12----------|
 |-----------------------------------12------15b17==|
 |--------------------------------------------------|
 |--------------------------------------------------|
 |--------------------------------------------------|
 |--------------------------------------------------|

|
| W
 
 |--------------------------------------------------|
 |--------------------------------------------------|
 |--------------------------------------------------|
 |--------------------------------------------------|
 |--------------------------------------------------|
 |--------------------------------------------------|

[E5] E S [E7+9] S S S S S E [G5] Q [A5] E
| | | | | |
[/] [/] [/] [/] [/] [/] 
+E S S S S T T S S S S S E E
 
 |-------12-------------------------------------|
 |-(15)r----12-15---12h15p12----12--------------|
 |---------------------------14----12h13-14-12--|
 |----------------------------------------------|
 |----------------------------------------------|
 |----------------------------------------------|

|
| W
 
 |----------------------------------------------|
 |----------------------------------------------|
 |----------------------------------------------|
 |----------------------------------------------|
 |----------------------------------------------|
 |----------------------------------------------|

[E5] E E [E7+9]E S S S S S S S S E
| | | | | |
[/] [/] [/] [/] [/] [/]  
~~~
Q. E H
 
 |----------------------------------|
 |----------------------------------|
 |----------------------------------|
 |-14-------------------------------|
 |----------------------------------|
 |----------------------------------|

|
| S S S S S S S S S S S S S S S S
 
 |----------------------------------|
 |----------------------------------|
 |--7s9-9-9-9s7-7-7s9-9-9s7-7-7-7-7-|
 |----------------------------------|
 |----------------------------------|
 |----------------------------------|

[E5]E S [E7+9]S S S S S E [G5]Q [A5] E
| | | | | | |
/ x / / / / /
W
 
 |-------------------------------------------------|
 |-------------------------------------------------|
 |-------------------------------------------------|
 |-------------------------------------------------|
 |-------------------------------------------------|
 |-------------------------------------------------|

|
| ~~~~
| S S S S S +S E +S S E S S +E
 
 |-------------------------------------------------|
 |-------------------------------------------------|
 |-7s9-9-9-9b11==(9)r-9pb11r==(9)p7---7-9b11==(9)r-|
 |----------------------------------9--------------|
 |-------------------------------------------------|
 |-------------------------------------------------|

[E5] E E [E7+9]E S S S S S S S S E
| | | | | | |
/ / x / / / /
S S S S S S S a S +S S S S E S S
 
 |-------------------------------------------------|
 |------------------------------15-17----15---17---|
 |---------12---14---14s16-(16)-------16-----------|
 |-12-14-------------------------------------------|
 |-------------------------------------------------|
 |-------------------------------------------------|

|
| S S S S S S S a S +S S S S E S S
 
 |-------------------------------------------------|
 |------------------------------10-12----10---12---|
 |----------7----9----9s11-(11)-------11-----------|
 |--7--9-------------------------------------------|
 |-------------------------------------------------|
 |-------------------------------------------------|

[E5] E S [E7+9] S S S S S E [G5] Q [A5] E
| | | | | |
[/] [/] [/] [/] [/] [/] 
S S S S S S S S +S S S S E S S
 
 |---------15---17---17b19r=(17)--15-----17----15-------|
 |-15-17------------------------------------17----17----|
 |------------------------------------------------------|
 |------------------------------------------------------|
 |------------------------------------------------------|
 |------------------------------------------------------|

|
| S S S S S S S S +S +T T S S E S S
 
 |---------10---12---12b14==(12)r(12)p10-12----10-------|
 |-10-12------------------------------------12----12----|
 |------------------------------------------------------|
 |------------------------------------------------------|
 |------------------------------------------------------|
 |------------------------------------------------------|

[E5] E E [E7+9]E S S S S S S S S E
| | | | | |
[/] [/] [/] [/] [/] [/] 
S S S S S S S a S +S S S S E S S
 
 |-------------------------------------------------|
 |------------------------------15-17----15---17---|
 |---------12---14---14s16-(16)-------16-----------|
 |-12-14-------------------------------------------|
 |-------------------------------------------------|
 |-------------------------------------------------|

|
| S S S S S S S a S +S S S S E S S
 
 |-------------------------------------------------|
 |------------------------------10-12----10---12---|
 |----------7----9----9s11-(11)-------11-----------|
 |--7--9-------------------------------------------|
 |-------------------------------------------------|
 |-------------------------------------------------|

[E5] E S [E7+9] S S S S S E [G5] Q [A5]E
| | | | | | |
/ x / / / / /
~~~~~
S S S S S S S S +S S E E E
 
 |---------15---17---17b19r=(17)--15--------------|
 |-15-17---------------------------------17-17----|
 |------------------------------------------------|
 |------------------------------------------------|
 |------------------------------------------------|
 |------------------------------------------------|

|
| ~~~~~
| S S S S S S S S +S +T T E E E
 
 |---------10---12---12b14==(12)r(12)p10----------|
 |-10-12---------------------------------12-12----|
 |------------------------------------------------|
 |------------------------------------------------|
 |------------------------------------------------|
 |------------------------------------------------|

[E5] E E [E7+9] E S S S S S S S S E
| | | | | | |
/ / x / / / /
S +S S S +S S S S S S S S E S S
 
 |-14b15r(14)p12---------12------12--------------------|
 |---------------15-(15)------12----12-15----12--------|
 |----------------------------------------14------12---|
 |-----------------------------------------------------|
 |-----------------------------------------------------|
 |-----------------------------------------------------|

|
| S +S S S +S S E S S S S E S S
 
 |-----------------------------------------------------|
 |-15b17r(15)p12---------12------12--------------------|
 |---------------14-(14)------------12-14----12--------|
 |----------------------------------------14------14---|
 |-----------------------------------------------------|
 |-----------------------------------------------------|

[E5] E S [E7+9] S S S S S E [G5] Q [A5]E
| | | | | |
[/] [/] [/] [/] [/] [/] 
~~~~~
S +S S S +S S S S S S Q E
 
 |-14b15r(14)p12---------12------12------12-------|
 |---------------15-(15)------12---------15b17----|
 |------------------------------------------------|
 |------------------------------------------------|
 |------------------------------------------------|
 |------------------------------------------------|

|
| ~~~~~
| S +S S S +S S S S S S Q E
 
 |------------------------------------------------|
 |-15b17r(15)p12---------12-----------------------|
 |---------------14-(14)------12-14b16---14b16----|
 |------------------------------------------------|
 |------------------------------------------------|
 |------------------------------------------------|

[E5] E E [E7+9] E S S S S S S S S E
| | | | | |
[/] [/] [/] [/] [/] [/] 
S +S S S +S S S S S S S S E S S
 
 |-14b15r(14)p12---------12--------12--------------------|
 |---------------15-(15)-------12-----12-15----12--------|
 |------------------------------------------14------12---|
 |-------------------------------------------------------|
 |-------------------------------------------------------|
 |-------------------------------------------------------|

|
| S +S S S +S S S S S S S S E S S
 
 |-------------------------------------------------------|
 |-15b17r(15)p12---------12--------12--------------------|
 |---------------14-(14)------(12)----12-14----12--------|
 |------------------------------------------14------14---|
 |-------------------------------------------------------|
 |-------------------------------------------------------|

[E5] E S [E7+9] S S S S S E [G5] Q [A5] E
| | | | | | |
/ x / / / / /
S S S S S S S S S S S S S S E
 
 |-12--------------------------------------------|
 |----12-15----12--------------------------------|
 |----------14----12-14----12--------------------|
 |----------------------14----12-14----12--------|
 |----------------------------------14----12-14--|
 |-----------------------------------------------|

|
| S S S S S S S S S S E S S E
 
 |-----------------------------------------------|
 |-12--------------------------------------------|
 |----12-14----12--------------------------------|
 |----------14----12-14----12--------------------|
 |----------------------14----12-14----14s12-12--|
 |-----------------------------------------------|

Chorus
[A5] Q E E [G5]Q E E [A5]E E E E E E E E
| | | | | | | | | | | | | |
[/] [/] [/] [/] [/] [/] [/] [/] [/] [/] [/] [/] [/] [/]  
+Q Q H W
 
 |------------------|-----------------|
 |------------------|-----------------|
 |------------------|-----------------|
 |------------------|-----------------|
 |-(14)-------------|-----------------|
 |------------------|-----------------|

[E5]E E [E7+9]E S S S S S S S S E [E5]E S [E7+9]S S S S S E [G5] Q [A5] E
| | | | | | | | | | | | |
[/] [/] [/] [/] [/] [/] [/] [/] [/] [/] [/] [/] [/] 
W H E Q +E
 
 |-------------------------|-----------------12------------|
 |-------------------------|-----------------15b17r=(15)---|
 |-------------------------|-------------------------------|
 |-------------------------|-------------------------------|
 |-------------------------|-------------------------------|
 |-------------------------|-------------------------------|

B5 G5 F# N.C.
Q E E E E E E E E E E Q. E W
| | | | | | | | | | | |
[/] [/] [/] [/] [/] [/] [/] [/] [/] [/] [/] [/]  
Gtr II
~~~ ~~
H. Q W S S S S Q S S S S E E
 
 |------------------|----------------|----------------------------------|
 |-12---------------|----------------|----------------------------------|
 |------------------|----------------|-------------12-------------14-12-|
 |------------------|----------------|-12h14-14-14-----12h14---14-------|
 |------------------|----------------|----------------------------------|
 |------------------|----------------|----------------------------------|

|
| Gtr III
| W W S S S S Q S S S S E E
 
 |------------------|----------------|----------------------------------|
 |------------------|----------------|--------------8-------------------|
 |------------------|----------------|--------------7--------------9--7-|
 |------------------|----------------|--7h=9-----9------7h=9----9--7--7-|
 |------------------|----------------|----------------------------------|
 |------------------|----------------|----------------------------------|

~~~ ~~ ~~
S S S S E. S E E E E
 
 |---------------------------------|
 |---------------------------------|
 |-------------12--12--------------|
 |-12h14-14-14----------14-12-14---|
 |---------------------------------|
 |---------------------------------|

|
| ~~
| S S S S E. S A E E E E
 
 |---------------------------------|
 |--------------8---x--------------|
 |--------------7---x--------------|
 |--7h=9-----9--------9s=7--5------|
 |-----------------------------7---|
 |---------------------------------|

~~~[3/4]
S S S S E. S S S S S E E S S S S E. S S +S E
 
 |-------------------------------------|--------------------------------|
 |-------------------------------------|--------------------------------|
 |-------------12--12------------14-12-|------------12--x-14b16r(14)-12-|
 |-12h14-14-14--------12h14---14-------|-12h14---14---------------------|
 |-------------------------------------|--------------------------------|
 |-------------------------------------|--------------------------------|

|
| S S S S E. S S S S S E E S S S S E. S S +S E
 
 |-------------------------------------|--------------------------------|
 |--------------8---8------------------|-------------8--x---------------|
 |--------------7---7-------------9--7-|-------------7--x---------------|
 |--7h=9-----9---------7h=9----9--7--7-|--7h=9----9--------7b9r==(7)--5-|
 |-------------------------------------|--------------------------------|
 |-------------------------------------|--------------------------------|

Verse
[E5] [E7+9] [E5] [E7+9] [G5] [A5] 
[4/4] Gtr IV
E E E S S S S S S S S E E S S S S S S E Q E
| | | | | | | | | | | | |
/ / x / / / / / / / / / /
~~~
W H E Q.
 
 |-------------------------|------------------------|
 |-------------------------|-----------------5------|
 |-------------------------|-----------------7b9----|
 |-------------------------|------------------------|
 |-------------------------|------------------------|
 |-------------------------|------------------------|

[E5]E E [E7+9]E S S S S S S S S E [E5]E S [E7+9]S S S S S E [G5]Q [A5]E
| | | | | | | | | | | | |
/ / x / / / / / / / / / /
~~~
W H E Q.
 
 |-------------------------|------------------------|
 |-------------------------|-----------------5------|
 |-------------------------|-----------------7b9----|
 |-------------------------|------------------------|
 |-------------------------|------------------------|
 |-------------------------|------------------------|

[E5]E E [E7+9]E S S S S S S S S E [E5]E S [E7+9]S S S S S E [G5] Q [A5]E
| | | | | | | | | | | | |
/ / x / / / / / / / / / /
~~~~~
W H E Q.
 
 |-------------------------|-----------------12-------|
 |-------------------------|-----------------15b17----|
 |-------------------------|--------------------------|
 |-------------------------|--------------------------|
 |-------------------------|--------------------------|
 |-------------------------|--------------------------|

[E5]E E [E7+9]E S S S S S S S S E [E5]E S [E7+9]S S S S S E [G5] Q [A5]E
| | | | | | | | | | | | |
/ / x / / / / / / / / / /
~~~~~
W H E Q.
 
 |-------------------------|-----------------12--------|
 |-------------------------|-----------------15b17-----|
 |-------------------------|---------------------------|
 |-------------------------|---------------------------|
 |-------------------------|---------------------------|
 |-------------------------|---------------------------|

Chorus
[A5]Q E E [G5]Q E E [A5]E E E E E E E E
| | | | | | | | | | | | | |
[/] [/] [/] [/] [/] [/] [/] [/] [/] [/] [/] [/] [/] [/]  
W W
 
 |---------------|-----------------|
 |---------------|-----------------|
 |---------------|-----------------|
 |---------------|-----------------|
 |---------------|-----------------|
 |---------------|-----------------|

[E5]E E [E7+9]E S S S S S S S S E [E5]E S [E7+9]S S S S S E [G5] Q [A5] E
| | | | | | | | | | | | |
[/] [/] [/] [/] [/] [/] [/] [/] [/] [/] [/] [/] [/] 
W H E Q +E
 
 |-------------------------|-----------------12------------|
 |-------------------------|-----------------15b17r=(15)---|
 |-------------------------|-------------------------------|
 |-------------------------|-------------------------------|
 |-------------------------|-------------------------------|
 |-------------------------|-------------------------------|

[B5] Q E E E E E E [G5]E E E E [F#]Q. E
| | | | | | | | | | | |
[/] [/] [/] [/] [/] [/] [/] [/] [/] [/] [/] [/]  
Gtr II
~~~
H. Q H Q E E
 
 |------------------|-------------------|
 |-12---------------|----------------15-|
 |------------------|-------------16----|
 |------------------|-------------------|
 |------------------|-------------------|
 |------------------|-------------------|

|
| Gtr III
| W H Q E E
 
 |------------------|-------------------|
 |------------------|-------------------|
 |------------------|--------------4--7-|
 |------------------|-------------------|
 |------------------|-------------------|
 |------------------|-------------------|

N.C.
W W
~~~~~~~~~~~~~~~~ ~~~~~~~~ ~~
Q Q Q E E Q Q E +E Q
 
 |-------------------------|--------------------------|
 |-17----17----17-------15-|-17----15-----------------|
 |-------------------16----|-----------14b15r(14)-12--|
 |-------------------------|--------------------------|
 |-------------------------|--------------------------|
 |-------------------------|--------------------------|

|
| ~~~~~~~~~~~~~~~~ ~~~~~~~~ ~~
| Q Q Q E E Q Q E +E Q
 
 |-------------------------|--------------------------|
 |-------------------------|--------------------------|
 |--7b9---7b9---7b9---4--7-|--7b9---7-----------------|
 |-------------------------|------------7b8r==(7)--5--|
 |-------------------------|--------------------------|
 |-------------------------|--------------------------|

Outro
~~~ ~~~ ~~ ~~
S S S S E. S S S S S E E S S S S E. S E E E E
 
 ||--------------------------------------|---------------------------------|
 ||o-------------------------------------|---------------------------------|
 ||--------------12--12------------14-12-|-------------12--12--------------|
 ||--12h14-14-14--------12h14---14-------|-12h14-14-14----------14-12-14---|
 ||o-------------------------------------|---------------------------------|
 ||--------------------------------------|---------------------------------|

|
| ~~
| S S S S E. S S S S S E E S S S S E. S a E E E E
 
 ||--------------------------------------|---------------------------------|
 ||o--------------8---8------------------|--------------8---x--------------|
 ||---------------7---7-------------9--7-|--------------7---x--------------|
 ||---7h=9-----9---------7h=9----7--7--7-|--7h=9-----9--------9s=7--5------|
 ||o-------------------------------------|-----------------------------7---|
 ||--------------------------------------|---------------------------------|

~~~ ~~
S S S S E. S S S S S E E S S S S E. S S +S E Q 4x
 
 |------------------------------------|-------------------------------------||
 |------------------------------------|------------------------------------o||
 |-------------12--x------------14-12-|------------12--x-14b16r(14)-12------||
 |-12h14-14-14-------12h14---14-------|-12h14---14---------------------14---||
 |------------------------------------|------------------------------------o||
 |------------------------------------|-------------------------------------||

|
| ~~
| S S S S E. S S S S S E E S S S S E. S S +S E Q 4x
 
 |------------------------------------|-------------------------------------||
 |--------------8--8------------------|-------------8--x-------------------o||
 |--------------7--7-------------9--7-|-------------7--x--------------------||
 |--7h=9-----9--------7h=9----9--7--7-|--7h=9----9--------7b9r==(7)--5------||
 |------------------------------------|---------------------------------7--o||
 |------------------------------------|-------------------------------------||

Duration Legend
 
 ---------------
 W - whole; H - half; Q - quarter; E - 8th; S - 16th; T - 32nd; X - 64th; a - acciaccatura

+ - note tied to previous; . - note dotted; .. - note double dotted
Uncapitalized letters represent notes that are staccato (1/2 duration)
Irregular groupings are notated above the duration line
Duration letters will always appear directly above the note/fret number it represents the
duration for. Duration letters with no fret number below them represent rests. Multi-
bar rests are notated in the form Wxn, where n is the number of bars to rest for. Low
melody durations appear below the staff
Tablature Legend
 
 ----------------

h - hammer-on
p - pull-off
b - bend
pb - pre-bend
r - bend release (if no number after the r, then release immediately)
/\ - slide into or out of (from/to "nowhere")
s - legato slide
S - shift slide
- natural harmonic
(n) - artificial harmonic
n(n) - tapped harmonic
~ - vibrato
tr - trill
T - tap
TP - trem. picking
PM - palm muting
\n/ - tremolo bar dip; n = amount to dip
\n - tremolo bar down
n/ - tremolo bar up
/n\ - tremolo bar inverted dip
= - hold bend; also acts as connecting device for hammers/pulls
- volume swell (louder/softer)
x - on rhythm slash represents muted slash
o - on rhythm slash represents single note slash
Misc Legend
 
 -----------

| - bar
|| - double bar
||o - repeat start
o|| - repeat end
*| - double bar (ending)
: - bar (freetime)
$ - Segno
& - Coda
Tempo markers - = BPM(8/16=s8/s16), where s8 = swing 8ths, s16 = swing 16ths

Important: The song above is NOT stored on the Chordie server. The original song is hosted at www.guitartabs.cc. Chordie works as a search engine and provides on-the-fly formatting. Chordie does not index songs against artists'/composers' will. To remove this song please click here.

Text color:
Chord color:
Chord grids: 
Font size:    
Page size: 

A5 B5 D E E5 E7+9 F# G5
Rate #1 of 3 versions

Login - add to songbook

SHARE PAGE  




You need to log in to post comments