Guitar Tabs, Chords and Lyrics
Server problems seems to be fixed. Chordie has been experiencing problems with songs disappearing. These issues now seems to be fixed, but still verifying the fix. If you find anything strange, please email admin@chordie.com.


Statesboro Blues  The Allman Brothers Band

Gtr I (E B E G# B E) - 'Duane Allman Slide Guitar'
Gtr II (E A D G B E) - 'Dickey Betts Rhythm Guitar'
Intro
Q.=128
12/8
Gtr I
H. Q E E E E Q. Q. +Q E Q E
 
 |------------------------||------------------------------|
 |------------------------||------------------------------|
 |------------------------||-------/10----(10)-----/10--8-|
 |----------------8-----8-||-10\----------------10--------|
 |------------10----10----||------------------------------|
 |------------------------||------------------------------|

|
| Gtr II
| H. Q E E E E Q. Q. H.
 
 |------------------------||------------------------------|
 |------------------------||------------------------------|
 |------------------------||------------------------------|
 |---------------10----10-||-12\--------------------------|
 |------------12----12----||------------------------------|
 |------------------------||------------------------------|

~~~~
A Q E +Q. +Q E E E E
 
 |---------------------------------------|
 |---------------------------------------|
 |---------------------------------------|
 |-10s8-------------------------8-----8--|
 |--------10-(10)---(10)\--/10----10-----|
 |---------------------------------------|

|
| H. Q E E E E
 
 |---------------------------------------|
 |---------------------------------------|
 |---------------------------------------|
 |-----------------------------10----10--|
 |--------------------------12----12-----|
 |---------------------------------------|

[E] [E] [E] [E] [E] [E] [E] [E] [E] [E] [E] [E]  
 
 |--------10-10s8----/15----/14-10s8----|
 |--8s=10---------10-----------------10-|
 |--------------------------------------|
 |--------------------------------------|
 |--------------------------------------|
 |--------------------------------------|

|
| Q. Q. H.
 
 |--------------------------------------|
 |--------------------------------------|
 |--------------------------------------|
 |-12\----------------------------------|
 |--------------------------------------|
 |--------------------------------------|

~~~
A H. +Q E E E E Q E Q. +Q E E E E
 
 |-8s10-------(10)\---------------|------------------------------|
 |--------------------------------|------------------------------|
 |--------------------------------|--------/9----(9)s=10s13---10-|
 |------------------------8-----8-|-10\--------------------------|
 |-------------------/10----10----|------------------------------|
 |--------------------------------|------------------------------|

|
| H. Q E E E E Q. Q. H.
 
 |--------------------------------|------------------------------|
 |--------------------------------|------------------------------|
 |--------------------------------|------------------------------|
 |-----------------------10----10-|-12\--------------------------|
 |--------------------12----12----|------------------------------|
 |--------------------------------|------------------------------|

~~~~
a Q E +Q. +Q E Q.
 
 |--------------------------------------|
 |--------------------------------------|
 |--------------------------------------|
 |-10s8---------------------------------|
 |--------10-(10)---(10)\---------------|
 |--------------------------------------|

|
| H. Q E E E E
 
 |--------------------------------------|
 |--------------------------------------|
 |--------------------------------------|
 |----------------------------10-----10-|
 |-------------------------12-----12----|
 |--------------------------------------|

Q E A Q E Q E E E E E E E E E E Q E Q. A
 
 |-------------------------------------|-10s8-------------------------------||
 |-/10------10s9------/10------10s9----|------10s=8-------------------------||
 |-------10--------10-/10---10------9\-|-------------10s8----------3s====10-||
 |-------------------------------------|------------------10\---------------||
 |-------------------------------------|------------------------------------||
 |-------------------------------------|------------------------------------||

|
| ~~~
| Q. Q. H. Q E Q. Q E Q E
 
 |-------------------------------------|------------------------------------||
 |-------------------------------------|------------------------------------||
 |-------------------------------------|---------10-------------------------||
 |--12\--------------------------------|-12---12----------12---12-10--12----||
 |-------------------------------------|------------------------------------||
 |-------------------------------------|------------------------------------||

[D5]Gtr II[D6] [D5] [D6]
Q E Q E Q E Q E
| | | | | | | |
[/] [/] [/] [/] [/] [/] [/] [/]  
Gtr I
~~~~~~~
E E E +H. +E E E
 
 |-10s9---------------------------|
 |------10-(10)---------(10)s8----|
 |-----------------------------10-|
 |--------------------------------|
 |--------------------------------|
 |--------------------------------|

[G5]Q E [G6] Q E [G5] Q E [G6]Q E [D5] Q E [D6]Q E [D5] Q E [D6]Q E
| | | | | | | | | | | | | | | |
[/] [/] [/] [/] [/] [/] [/] [/] [/] [/] [/] [/] [/] [/] [/] [/] 
E E E E E E E E E E E E H. +Q E Q E
 
 |------10----/17---/14---10s8------|-/13----------(13)s=14--------|
 |-8s10----10------------------10s8-|--------------------------9s==|
 |----------------------------------|--------------------------9s==|
 |----------------------------------|--------------------------9s==|
 |----------------------------------|--------------------------9s==|
 |----------------------------------|------------------------------|

[D5] Q E [D6]Q E [D5]Q E [D6]Q E [G5] Q E [G6] Q E [G5] Q E [G6] Q E
| | | | | | | | | | | | | | | |
[/] [/] [/] [/] [/] [/] [/] [/] [/] [/] [/] [/] [/] [/] [/] [/] 
~~~~~~~
Q E Q. Q E E E E E E E Q E +Q. Q E
 
 |---------------------------|---------------------------------|
 |-10s=9---------------------|------------------------------10-|
 |-10s=9----------/10---10s8-|-------------------------/10-----|
 |-10s=9---------------------|-10s8-----10--10-(10)------------|
 |-10s=9---------------------|------/10------------------------|
 |---------------------------|---------------------------------|

[G5] Q E [G6] Q E [G5]Q E [G6] Q E
| | | | | | | |
[/] [/] [/] [/] [/] [/] [/] [/]  
~~~ ~~
Q. Q E A Q E Q E
 
 |--------------------------------|
 |--------/10-----10s8-----10-----|
 |-------------10-------10-10-----|
 |-10--------------------------10-|
 |--------------------------------|
 |--------------------------------|

[D5] Q E [D6]Q E [D5] Q E [D6] Q E [D5] Q E [D6]Q E [D5]Q E [D6] Q E
| | | | | | | | | | | | | | | |
[/] [/] [/] [/] [/] [/] [/] [/] [/] [/] [/] [/] [/] [/] [/] [/] 
~~~~~~~~~~~~~~~~
+H. +Q E E E E E E E Q. Q E Q E
 
 |--------------------------------|---------------------10----|
 |-----------------------\8-----9s|=10s7------------/10-------|
 |--------------------------/10---|---------------------------|
 |-(10)---------(10)--------------|---------------------------|
 |--------------------10----------|---------------------------|
 |--------------------------------|---------------------------|

[A5] Q E [A6]Q E [A5] Q E [A6] Q E
| | | | | | | |
[/] [/] [/] [/] [/] [/] [/] [/]  
~~~~~~~~~~~~
E E E E E E Q. +E E E
 
 |-10s9------/9-----------------------|
 |------10s8------/10-----(10)s8------|
 |-------------------------------/10--|
 |------------------------------------|
 |------------------------------------|
 |------------------------------------|

[G5]Q E [G6] Q E [G5]Q E [G6]Q E
| | | | | | | |
[/] [/] [/] [/] [/] [/] [/] [/]  
 
 |---2---|

E E E S E S E E E E E
 
 |------10----/17-----/14-10s8-------|
 |-8s10----10------------------/10s8-|
 |-----------------------------------|
 |-----------------------------------|
 |-----------------------------------|
 |-----------------------------------|

[D5] Q E [D6] Q E [D5]Q E [D6]Q E [D5] Q E Q E +Q E Q E
| | | | | | | | | | | | | | | |
/ / / / / / / / / o o o / / o o
~~~~~~~~~~~~ ~~~ ~~~~
Q. +Q. E E E Q E Q. Q E +Q. Q E
 
 |-/10-----(10)\----8------------|---------------------------------||
 |----------------------8-8------|--------/10------------------10--||
 |---------------------------/10-|--------/10-------------/10------||
 |-------------------------------|-10---------------------/10------||
 |-------------------------------|-------------10-(10)----/10------||
 |-------------------------------|---------------------------------||

Verse
[D5] Q E [D6]Q E [D5]Q E [D6] Q E
| | | | | | | |
[/] [/] [/] [/] [/] [/] [/] [/]  
Q E Q. Q. Q.
 
 |----------------------------|
 |----------------------------|
 |-/10----------------/10-----|
 |----------------------------|
 |----------------------------|
 |----------------------------|

[G5]Q E [G6]Q E [G5]Q E [G6]Q E [D5]Q E [D6] Q E [D5]Q E [D6]Q E
| | | | | | | | | | | | | | | |
[/] [/] [/] [/] [/] [/] [/] [/] [/] [/] [/] [/] [/] [/] [/] [/] 
A Q E Q. H. Q E E E E Q. Q.
 
 |--------------------------|--------------------------|
 |--------------------------|--------------------------|
 |--------------------------|--------------------------|
 |-10s8---------------------|----8-10------8\----------|
 |--------------------------|-----------10-------------|
 |--------------------------|--------------------------|

[D5] Q E [D6]Q E [D5]Q E [D6] Q E
| | | | | | | |
[/] [/] [/] [/] [/] [/] [/] [/]  
Q E Q E A Q E Q E
 
 |-------------------------------|
 |--------------10s8-------------|
 |--------------------10---------|
 |-10-----8s=10----------10--/10-|
 |-----10------------------------|
 |-------------------------------|

[G5] Q E [G6]Q E [G5]Q E [G6] Q E [G5] Q E [G6]Q E [G5]Q E [G6]Q E
| | | | | | | | | | | | | | | |
[/] [/] [/] [/] [/] [/] [/] [/] [/] [/] [/] [/] [/] [/] [/] [/] 
+Q +E E E E Q E Q E E E E Q. H.
 
 |-------------------------------|-------------------------|
 |-------------------------------|-------------------------|
 |-------------------------------|-------------------------|
 |-(10)--(10)s8-----------10--10s|=14----------------------|
 |---------------------10--------|-------------------------|
 |-------------------------------|-------------------------|

[D5]Q E [D6] Q E [D5] Q E [D6]Q E
| | | | | | | |
[/] [/] [/] [/] [/] [/] [/] [/]  
Q E E E E Q. Q E
 
 |----------------------------|
 |----------------------------|
 |----/10---------------------|
 |--------10------10s===8s=10-|
 |-------------10-------------|
 |----------------------------|

[D5] Q E [D6]Q E [D5] Q E [D6]Q E [A5]Q E [A6]Q E [A5]Q E [A6]Q E
| | | | | | | | | | | | | | | |
[/] [/] [/] [/] [/] [/] [/] [/] [/] [/] [/] [/] [/] [/] [/] [/] 
Q E A Q E E E E Q E H. Q E E E E
 
 |-------------------------------|--------------------------|
 |-/10----10s8-------------------|--------------------------|
 |--------------/10--------------|---------------/10---10s8-|
 |------------------10s8---------|--------------------------|
 |-----------------------10s8----|--------------------------|
 |-------------------------------|--------------------------|

[G5] Q E [G6]Q E [G5] Q E [G6]Q E [D5] Q E [D6] Q E [D5] Q E [D6]Q E
| | | | | | | | | | | | | | | |
[/] [/] [/] [/] [/] [/] [/] [/] [/] [/] [/] [/] [/] [/] [/] [/] 
~~~~~~~~~~~~~~~~~
H. +Q. Q. E E E E E E E E E E A E E
 
 |---------------------------|-----10----10----10-10s9-------------|
 |---------------------------|-/10----10----10---------10s8--------|
 |---------------------------|------------------------------8s10s8-|
 |-10----------(10)----------|-------------------------------------|
 |---------------------------|-------------------------------------|
 |---------------------------|-------------------------------------|

[D5] Q E Q E +Q E Q E
| | | | | | | |
/ o o o / / o o
~~~
E E E E E E Q. Q E
 
 |-/10s9--------------------------||
 |-------10s8------------------10-||
 |------------10s8--------/10-----||
 |--------------------------------||
 |-----------------10-------------||
 |--------------------------------||

[D5] Q E [D6]Q E [D5]Q E [D6] Q E [G5]Q E [G6]Q E [G5]Q E [G6]Q E
| | | | | | | | | | | | | | | |
[/] [/] [/] [/] [/] [/] [/] [/] [/] [/] [/] [/] [/] [/] [/] [/] 
Q E Q. Q E Q. a Q E Q. Q. Q E
 
 |----------------------------|----------------------------|
 |----------------------------|----------------------------|
 |-/10----------------/10-----|----------------------------|
 |----------------------------|-10s8-------------------(8)-|
 |-----------------10---------|----------------------------|
 |----------------------------|----------------------------|

[D5] Q E [D6]Q E [D5] Q E [D6] Q E
| | | | | | | |
[/] [/] [/] [/] [/] [/] [/] [/]  
~~~~~~~
E E E E E E Q E +E E E
 
 |-------------------10-(10)-14---|
 |-/7---8---9---/10---------------|
 |----7---8---9-------------------|
 |--------------------------------|
 |--------------------------------|
 |--------------------------------|

[D5] Q E [D6]Q E [D5] Q E [D6] Q E
| | | | | | | |
[/] [/] [/] [/] [/] [/] [/] [/]  
~~~~~~~
E E E E E E Q E +Q.
 
 |-10s8----------------10-(10)----|
 |------10s8-----------10---------|
 |-----------10s8-----------------|
 |----------------/10-------------|
 |--------------------------------|
 |--------------------------------|

[G5] Q E [G6]Q E [G5]Q E [G6]Q E [G5] Q E [G6]Q E [G5]Q E [G6]Q E
| | | | | | | | | | | | | | | |
[/] [/] [/] [/] [/] [/] [/] [/] [/] [/] [/] [/] [/] [/] [/] [/] 
~~~
+Q. Q. Q. a Q E W.
 
 |-(10)\--------------------------|-----------------------|
 |----------------------10s8------|-----------------------|
 |----------------------------/10-|-----------------------|
 |--------------------------------|-10--------------------|
 |--------------------------------|-----------------------|
 |--------------------------------|-----------------------|

[D5]Q E [D6] Q E [D5] Q E [D6]Q E
| | | | | | | |
[/] [/] [/] [/] [/] [/] [/] [/]  
Q e Q E Q. Q E
 
 |-----------------------------|
 |-----------------------------|
 |----/10----------------------|
 |--------10-------10s===8-----|
 |------------(10)----------10-|
 |-----------------------------|

[D5] Q E [D6]Q E [D5] Q E [D6] Q E [A5]Q E [A6]Q E [A5]Q E [A6] Q E
| | | | | | | | | | | | | | | |
[/] [/] [/] [/] [/] [/] [/] [/] [/] [/] [/] [/] [/] [/] [/] [/] 
~~~
Q E A Q E Q. Q E H. Q. A Q E
 
 |--------------------------------|---------------------------|
 |-/10----10s8--------------------|---------------------------|
 |--------------/10-10-----/10----|------------------8s10s=8--|
 |------------------10------------|---------------------------|
 |--------------------------------|---------------------------|
 |--------------------------------|---------------------------|

[G5] Q E [G6]Q E [G5] Q E [G6]Q E [D5] Q E [D6] Q E [D5] Q E [D6] Q E
| | | | | | | | | | | | | | | |
[/] [/] [/] [/] [/] [/] [/] [/] [/] [/] [/] [/] [/] [/] [/] [/] 
~~~~~~~~~~~~~~~~ ~~~~~~~~~~~~~~~~~~~~~~~~~~~
H. +Q. Q E Q E Q E Q E Q E
 
 |--------------------------|-----------------------------|
 |--------------------------|-----------------------------|
 |--------------------------|-----------------------------|
 |-10----------(10)-------7s|=10--10-10--10-10--10-10--10-|
 |--------------------------|-----------------------------|
 |--------------------------|-----------------------------|

[D5] Q E Q E +Q E Q E
| | | | | | | |
/ o o o / / o o
E E E Q E +Q. Q E
 
 |-----------------------13\-------||
 |-----------------------13\--/10--||
 |-----------------------13\--/10--||
 |-10s8----8-----------------------||
 |------10----10-(10)--------------||
 |---------------------------------||

Guitar Solo - Duane
[D5] Q E [D6] Q E [D5] Q E [D6]Q E
| | | | | | | |
[/] [/] [/] [/] [/] [/] [/] [/]  
E E E Q. +Q E E E E
 
 |-10s8----/10-----(10)--------------|
 |------10---------------/10---/10s8-|
 |-----------------------------------|
 |-----------------------------------|
 |-----------------------------------|
 |-----------------------------------|

[G5] Q E [G6] Q E [G5] Q E [G6] Q E [D5] Q E [D6]Q E [D5] Q E [D6]Q E
| | | | | | | | | | | | | | | |
[/] [/] [/] [/] [/] [/] [/] [/] [/] [/] [/] [/] [/] [/] [/] [/] 
~~~~~~~ ~~~~~~~~~~~~~~~~
E E E +Q. Q E E E E A H. +Q E Q E
 
 |---------------------------------|---------------------/10\--------|
 |----------------------10-10s8----|-8s10----------(10)--------------|
 |-10s9------------/10----------10-|-----------------------------/10-|
 |------10-(10)----/10-------------|---------------------------------|
 |---------------------------------|---------------------------------|
 |---------------------------------|---------------------------------|

[D5] Q E [D6]Q E [D5] Q E [D6] Q E [G5] Q E [G6] Q E [G5]Q E [G6] Q E
| | | | | | | | | | | | | | | |
[/] [/] [/] [/] [/] [/] [/] [/] [/] [/] [/] [/] [/] [/] [/] [/] 
~~~~~~~~~~~~~~~~ ~~~~~~~
H. +Q E +Q. +Q. +Q E A Q E Q E
 
 |-----------------------------|-------------------------------|
 |-----------------------------|-------------------------------|
 |-------------------/9-(9)----|-(9)----(9)s=8-----------------|
 |-10----------(10)--/9--------|---------------10s8-----10--10-|
 |-----------------------------|---------------------10--------|
 |-----------------------------|-------------------------------|

[G5] Q E [G6] Q E [G5] Q E [G6] Q E
| | | | | | | |
[/] [/] [/] [/] [/] [/] [/] [/]  
~~~~~~
+Q E +Q. E E E Q E
 
 |--------------------------------|
 |-----------------------------10-|
 |-------/9-(9)-----------/10-----|
 |-(10)------------10s8-----------|
 |----------------------8---------|
 |--------------------------------|

[D5] Q E [D6]Q E [D5] Q E [D6] Q E [D5] Q E [D6] Q E [D5] Q E [D6] Q E
| | | | | | | | | | | | | | | |
[/] [/] [/] [/] [/] [/] [/] [/] [/] [/] [/] [/] [/] [/] [/] [/] 
~~~~ ~~~~~~~
H. +Q E E E E E E E Q E +Q E E E E
 
 |--------------------------------|---------------------------------10----|
 |------------------------10------|--------------------------/10-10----10-|
 |-/10----------(10)--/10----10s8-|--------------------------/10----------|
 |--------------------------------|-10s8-(10)-/10--/10-(10)---------------|
 |--------------------------------|-------10------------------------------|
 |--------------------------------|---------------------------------------|

[A5] Q E [A6]Q E [A5] Q E [A6] Q E
| | | | | | | |
[/] [/] [/] [/] [/] [/] [/] [/]  
~~~~
E E E E E E Q. +Q E
 
 |-10s9-------/9-----------------10--|
 |------/10--------/10-----(10)------|
 |-----------------------------------|
 |-----------------------------------|
 |-----------------------------------|
 |-----------------------------------|

[G5] Q E [G6] Q E [G5] Q E [G6] Q E
| | | | | | | |
[/] [/] [/] [/] [/] [/] [/] [/] 
~~~ ~~~
E E E +E Q E E E +E Q
 
 |-/14---/10-(10)-/10---10s9----------/14\---|
 |---------------------------10-(10)\--------|
 |-------------------------------------------|
 |-------------------------------------------|
 |-------------------------------------------|
 |-------------------------------------------|

[D5] Q E [D6] Q E [D5] Q E [D6] Q E [D5] Q E Q E +Q E Q E
| | | | | | | | | | | | | | | |
/ / / / / / / / / o o o / / o o
~~~~~~~~~~~~~ ~~~
Q E Q E E E E Q E Q. Q. Q E Q E
 
 |-/10--10-10--10-10s8----/10--10-|-10\-----------------------------||
 |---------------------10---------|--------/21-----/22--22-/22--22--||
 |--------------------------------|---------------------------------||
 |--------------------------------|---------------------------------||
 |--------------------------------|---------------------------------||
 |--------------------------------|---------------------------------||

[D5] Q E [D6]Q E [D5] Q E [D6] Q E [G5] Q E [G6] Q E [G5]Q E [G6] Q E
| | | | | | | | | | | | | | | |
[/] [/] [/] [/] [/] [/] [/] [/] [/] [/] [/] [/] [/] [/] [/] [/] 
~~~~
H. +Q E +E Q Q. Q E Q E E E E
 
 |----------------------------------|-----------------22s20-------|
 |-/22----------(22)--\20-(20)------|-21s===22--0-x/--------22s19-|
 |-----------------------------22---|-------------x/--------------|
 |----------------------------------|-----------------------------|
 |----------------------------------|-----------------------------|
 |----------------------------------|-----------------------------|

[D5] Q E [D6] Q E [D5] Q E [D6] Q E
| | | | | | | |
[/] [/] [/] [/] [/] [/] [/] [/]  
~~~~
Q. +Q E Q E Q E
 
 |-/22-----(22)----------------------|
 |------------------20-----\20-------|
 |---------------22-----22------/22--|
 |-----------------------------------|
 |-----------------------------------|
 |-----------------------------------|

[D5] Q E [D6] Q E [D5] Q E [D6] Q E [G5] Q E [G6] Q E [G5] Q E [G6] Q E
| | | | | | | | | | | | | | | |
[/] [/] [/] [/] [/] [/] [/] [/] [/] [/] [/] [/] [/] [/] [/] [/] 
~~~ ~~~~
Q E Q. +Q E E Q Q. Q. Q. Q.
 
 |---------------------------------|--------------------------------|
 |---------------------------------|--------------------------------|
 |-22\-----22-----(22)s=20-22s20---|------------------------/22-----|
 |-22\-----------------------------|-22-----/21-----/22-------------|
 |------22-------------------------|--------------------------------|
 |---------------------------------|--------------------------------|

[G5] Q E [G6] Q E [G5] Q E [G6] Q E
| | | | | | | |
[/] [/] [/] [/] [/] [/] [/] [/]  
A Q E Q E Q. Q E
 
 |-----------------------------------|
 |---------------------------/22-----|
 |-------------22s=20-------------22-|
 |-22s20--------------22\------------|
 |--------(22)-----------------------|
 |-----------------------------------|

[D5] Q E [D6] Q E [D5] Q E [D6] Q E [D5] Q E [D6] Q E [D5] Q E [D6] Q E
| | | | | | | | | | | | | | | |
[/] [/] [/] [/] [/] [/] [/] [/] [/] [/] [/] [/] [/] [/] [/] [/] 
~~~~
A Q E Q. +Q E E E E Q. Q E Q. Q E
 
 |-------------------------22s20-------|-/22-----------------------------|
 |-22s20-----/22-----(22)--------22s19-|---------\20--------------22-----|
 |--------22---------------------------|--------------22-(22)\--------22-|
 |-------------------------------------|------------------22\------------|
 |-------------------------------------|---------------------------------|
 |-------------------------------------|---------------------------------|

[A5] Q E [A6] Q E [A5] Q E [A6] Q E
| | | | | | | |
[/] [/] [/] [/] [/] [/] [/] [/] 
[E] [E] [E] [E] [E] [E] [E] [E] [E] [E] [E] [E]  
 
 |--------------------------------------|
 |-20----20----20----20----/22----20----|
 |----22----22----22----22-----22----22-|
 |--------------------------------------|
 |--------------------------------------|
 |--------------------------------------|

[G5] Q E [G6] Q E [G5] Q E [G6] Q E
| | | | | | | |
[/] [/] [/] [/] [/] [/] [/] [/] 
E E E E E E E E E Q E
 
 |---------------------------------------|
 |-/22-----20----/22----20----20---------|
 |------22----22-----22----22----/22-----|
 |------------------------------------22-|
 |---------------------------------------|
 |---------------------------------------|

|
| W.
 
 |---------------------------------------|
 |---------------------------------------|
 |---------------------------------------|
 |---------------------------------------|
 |---------------------------------------|
 |---------------------------------------|

[D5] Q E [D6] Q E [D5] Q E [D6]Q E W.
| | | | | | | |
[/] [/] [/] [/] [/] [/] [/] [/]  
~~~
Q. Q E E E E E E E Q. Q E Q E E E E
 
 |--------22--22-22s20-------/27---|-/22---------------------------------||
 |---------------------22\---------|----------\20------22\---------------||
 |---------------------------------|---------------22--------------------||
 |-22------------------------------|----------------------------8-----8--||
 |---------------------------------|------------------------10----10-----||
 |---------------------------------|-------------------------------------||

|
| Gtr II
| W. Q E Q E +Q E E E E
 
 |---------------------------------|-------------------------------------||
 |---------------------------------|-------------------------------------||
 |---------------------------------|-------------------------------------||
 |---------------------------------|---------------------------10----10--||
 |---------------------------------|--12---10--11--12-(12)--12----12-----||
 |---------------------------------|--10---------------------------------||

Verse
Q. Q. Q E E E E Q. Q. Q E E E E
 
 |---------------------------|---------------------------|
 |---------------------------|---------------------------|
 |---------------------------|---------------------------|
 |-10----------------8-----8-|-10----------------8-----8-|
 |---------------10----10----|---------------10----10----|
 |---------------------------|---------------------------|

|
| Q. Q. Q E E E E Q. Q. Q E E E E
 
 |---------------------------|---------------------------|
 |---------------------------|---------------------------|
 |---------------------------|---------------------------|
 |-12---------------10----10-|-12---------------10----10-|
 |---------------12----12----|---------------12----12----|
 |---------------------------|---------------------------|

Q. Q. Q E E E E
 
 |----------------------------|
 |----------------------------|
 |----------------------------|
 |-10----------------8-----8--|
 |---------------10----10-----|
 |----------------------------|

|
| Q. Q. Q E E E E
 
 |----------------------------|
 |----------------------------|
 |----------------------------|
 |-12---------------10----10--|
 |---------------12----12-----|
 |----------------------------|

W.[G]
~~~[G]
Q E Q. E E E Q E
 
 |--------------------------------|
 |--------------------------------|
 |----------9---------------------|
 |-10---10-------10s8----/10--/10-|
 |--------------------10----------|
 |--------------------------------|

|
| ~~~
| Q E Q. Q E Q E
 
 |--------------------------------|
 |------------------------13s==12-|
 |---------10-------------13s==12-|
 |-12---12-------12-------13s==12-|
 |--------------------12--11s==10-|
 |--------------------------------|

t[G5]r II[G6] [G5] [G6] [G5] [G6] [G5] [G6]
Q E Q E Q E Q E Q E Q E Q E Q E
| | | | | | | | | | | | | | | |
[/] [/] [/] [/] [/] [/] [/] [/] [/] [/] [/] [/] [/] [/] [/] [/] 
tr I
~~~~ ~~~
+H. +Q E Q E H. +Q. Q.
 
 |--------------------------------|----------------------------|
 |--------------------------------|----------------------------|
 |-------------------------/10s=8-|----------------------------|
 |-(10)---------(10)--------------|-10----------(10)-----------|
 |--------------------(10)--------|----------------------------|
 |--------------------------------|----------------------------|

|
| W. W.
 
 |--------------------------------|----------------------------|
 |--------------------------------|----------------------------|
 |--------------------------------|----------------------------|
 |--------------------------------|----------------------------|
 |--------------------------------|----------------------------|
 |--------------------------------|----------------------------|

[D5]Gtr II[D6] [D5] [D6]
Q E Q E Q E Q E
| | | | | | | |
[/] [/] [/] [/] [/] [/] [/] [/]  
Gtr I
~~~~~~~
Q E E E E +Q E E E E
 
 |--------10s8--------------------|
 |----/10------10-(10)----/10-----|
 |--------------------------------|
 |--------------------------------|
 |--------------------------------|
 |--------------------------------|

[D5] Q E [D6] Q E [D5] Q E [D6]Q E [A5]Q E [A6]Q E [A5]Q E [A6] Q E
| | | | | | | | | | | | | | | |
[/] [/] [/] [/] [/] [/] [/] [/] [/] [/] [/] [/] [/] [/] [/] [/] 
Q E Q E E E E Q E H. Q. Q E
 
 |----------------------------|-------------------------|
 |-\8-----\8------------------|-------------------------|
 |-----10-----10--------------|------------------10s=8--|
 |---------------10s8---------|-------------------------|
 |--------------------10s8----|-------------------------|
 |----------------------------|-------------------------|

[G5] Q E [G6]Q E [G5] Q E [G6] Q E [D5] Q E [D6] Q E [D5] Q E [D6] Q E
| | | | | | | | | | | | | | | |
[/] [/] [/] [/] [/] [/] [/] [/] [/] [/] [/] [/] [/] [/] [/] [/] 
~~ ~~ ~~
H. +Q. +Q E Q E Q E Q E Q E
 
 |-----------------------------|------------------------------|
 |-----------------------------|------------------------------|
 |-----------------------------|------------------------------|
 |-10----------(10)----(10)--5s|=10---10-10--10-10--10-10--10-|
 |-----------------------------|------------------------------|
 |-----------------------------|------------------------------|

|
| G
| W. W.
 
 |-----------------------------|------------------------------|
 |-----------------------------|------------------------------|
 |-----------------------------|------------------------------|
 |-----------------------------|------------------------------|
 |-----------------------------|------------------------------|
 |-----------------------------|------------------------------|

W.
~~~~~~~
E E E Q E +H.
 
 |-----------------------------------||
 |-----------------------------------||
 |-----------------------------------||
 |-10--8-----8-----------------------||
 |-------10-----10-(10)--------------||
 |-----------------------------------||

|
|tr II
| Q E Q E +Q E +Q.
 
 |-----------------------------------||
 |-----------------------------------||
 |-----------------------9-(9)b11----||
 |-----------------------------------||
 |-12----10-11--12-(12)--------------||
 |-10--------------------------------||

Guitar Solo - Dickey Betts
D5(typD6(type D5(typD6(typeG5(typeG6(tyG5(typG6(type 2D5(typD6(type
Gtr I
Q E Q E Q E Q E Q E Q E Q E Q E
| | | | | | | | | | | | | | | |
[/] [/] [/] [/] [/] [/] [/] [/] [/] [/] [/] [/] [/] [/] [/] [/] 
Gtr II
~~ ~~
2:3
Q E Q E Q. Q E S E. Q E Q. Q E
 
 |-7------------------------|--------------------------|
 |----10--------------------|--------------------------|
 |-------9b11----7-----7----|-7-7----7----7-----9--(0)-|
 |------------------------9-|-----------9--------------|
 |--------------------------|--------------------------|
 |--------------------------|--------------------------|

D5(type 2D6(type 2)
Q E Q E Q E Q E
| | | | | | | |
[/] [/] [/] [/] [/] [/] [/] [/]  
Q E Q E Q E Q E
 
 |-7-----------7----------7------|
 |----10---------10----------10--|
 |-------9b11--------9b11--------|
 |-------------------------------|
 |-------------------------------|
 |-------------------------------|

D5(type D6(type 2D5(typD6(type 2)G5(type G6(tyG5(typG6(type
Q E Q E Q E Q E Q E Q E Q E Q E
| | | | | | | | | | | | | | | |
[/] [/] [/] [/] [/] [/] [/] [/] [/] [/] [/] [/] [/] [/] [/] [/] 
Q E Q E Q E Q E Q E Q E Q E Q E
 
 |-------7----------7-----------7-|--------------------------|
 |---------10----------10---------|--------------------10----|
 |-9b11--------9b11-------9b10----|-9b10r=9-7----7s=11-------|
 |--------------------------------|------------9-------------|
 |--------------------------------|--------------------------|
 |--------------------------------|--------------------------|

G5(typG6(typeG5(type 2G6(type 2)
Q E Q E Q E Q E
| | | | | | | |
[/] [/] [/] [/] [/] [/] [/] [/]  
Q E Q E Q. Q E
 
 |----------------------------------|
 |-13----15-----17b19----17b19--17--|
 |-----------16---------------------|
 |----------------------------------|
 |----------------------------------|
 |----------------------------------|

D5(typeD6(typeD5(type 2D6(type 2D5(type 2D6(typeD5(type 2)D6(type 2)A5(type
Q E Q E Q E Q E Q E Q E Q E Q E
| | | | | | | | | | | | | | | |
[/] [/] [/] [/] [/] [/] [/] [/] [/] [/] [/] [/] [/] [/] [/] [/] 
~~~ ~~~ ~~~
2:3| 2:3|
Q. Q E S E. Q E S E. Q E Q E E Q
 
 |-------------------------------|------------------------17-17-17---|
 |-15-----15-----15-15----15-----|-15-15----15-----17b19-------------|
 |------------16--------------16-|--------------16-------------------|
 |-------------------------------|-----------------------------------|
 |-------------------------------|-----------------------------------|
 |-------------------------------|-----------------------------------|

2)A6(type 2)A5(typeA6(type 2)
Q E Q E Q E Q E
| | | | | | | |
[/] [/] [/] [/] [/] [/] [/] [/]  
~~~
Q E +E Q Q. E E E
 
 |--------17-(17)-17---------------17b19===|
 |-17b19---------------17-------15---------|
 |-----------------------------------------|
 |-----------------------------------------|
 |-----------------------------------------|
 |-----------------------------------------|

G5(type 2) G6(type 2) G5(type 2) G6(type 2)
Q E Q E Q E Q E
| | | | | | | |
[/] [/] [/] [/] [/] [/] [/] [/] 
+Q E +E Q Q E +E Q
 
 |-(17)r--17b19==(17)r-17b19---17--------------------|
 |---------------------------------17b19==(17)r-17---|
 |---------------------------------------------------|
 |---------------------------------------------------|
 |---------------------------------------------------|
 |---------------------------------------------------|

D5(type 2)
Q. q. q. q. q E Q E +H.
| | | | | | | | |
/ o o o o o o / /
~~~
2:3|
Q. q E Q. Q. Q E E E +E Q +Q.
 
 |--------------------------|--------------------------------------||
 |-15----13-----12----11----|-10-----10-10---(10)-13b15===(13)r----||
 |--------------------------|-----12-------------------------------||
 |--------------------------|--------------------------------------||
 |--------------------------|--------------------------------------||
 |--------------------------|--------------------------------------||

D5(typeD6(type 2) D5(typeD6(type 2) G5(typeG6(typeG5(type G6(type 2)D5(type
Q E Q E Q E Q E Q E Q E Q E Q E
| | | | | | | | | | | | | | | |
[/] [/] [/] [/] [/] [/] [/] [/] [/] [/] [/] [/] [/] [/] [/] [/] 
~~~
 
 |---4:6----|

Q. Q +E Q E Q +E Q. Q E E E E E
 
 |-10-------------------10-----13--(13)b13.5-|-10-----10-----10-13---14-15---|
 |--------13b15===(13)r-----13---------------|------------12-----------------|
 |-------------------------------------------|-------------------------------|
 |-------------------------------------------|-------------------------------|
 |-------------------------------------------|-------------------------------|
 |-------------------------------------------|-------------------------------|

2) D6(type 2) D5(type 2) D6(type 2)
Q E Q E Q E Q E
| | | | | | | |
[/] [/] [/] [/] [/] [/] [/] [/] 
Q E +E Q Q E +E Q
 
 |-15b17--15b17==(15)r-15b17---15b17--15b17==(15)r-15b17----|
 |----------------------------------------------------------|
 |----------------------------------------------------------|
 |----------------------------------------------------------|
 |----------------------------------------------------------|
 |----------------------------------------------------------|

D5(type 2)D6(type 2)D5(typeD6(type 2)
Q E Q E Q E Q E
| | | | | | | |
[/] [/] [/] [/] [/] [/] [/] [/] 
Q E +E Q Q E +E E E
 
 |-15b17--15-(15)-15---13----------------|
 |-------------------------15-(15)-15-13-|
 |---------------------------------------|
 |---------------------------------------|
 |---------------------------------------|
 |---------------------------------------|

G5(typeG6(typeG5(typeG6(type 2G5(typeG6(typeG5(typeG6(type 2)
Q E Q E Q E Q E Q E Q E Q E Q E
| | | | | | | | | | | | | | | |
[/] [/] [/] [/] [/] [/] [/] [/] [/] [/] [/] [/] [/] [/] [/] [/] 
~~~ ~~~
Q. Q E Q E Q E Q. Q E Q E E E E
 
 |-------------------13--------|-------------------13-----------|
 |-15-----15--13-15-----15p=13-|-15-----15p=13-15-----15p13-----|
 |-----------------------------|----------------------------14--|
 |-----------------------------|--------------------------------|
 |-----------------------------|--------------------------------|
 |-----------------------------|--------------------------------|

D5(typeD6(typeD5(type 2) D6(type 2) D5(typeD6(type 2) D5(type 2) D6(type 2)
Q E Q E Q E Q E Q E Q E Q E Q E
| | | | | | | | | | | | | | | |
[/] [/] [/] [/] [/] [/] [/] [/] [/] [/] [/] [/] [/] [/] [/] [/] 
~~~ ~~~~~~~~~~~~~~~~~~~~~~~~~~~~~~ ~~~~~~~~~~~~~~~~~~~~~~
Q. Q E Q E +E Q Q E +E Q Q E +E Q
 
 |-------------------15b17==(15)-15---|-15--15-(15)-15r---15b17===15-(15)-15r---|
 |-15-----15--13-15-------------------|-----------------------------------------|
 |------------------------------------|-----------------------------------------|
 |------------------------------------|-----------------------------------------|
 |------------------------------------|-----------------------------------------|
 |------------------------------------|-----------------------------------------|

A5(type 2) A6(type 2) A5(type 2) A6(type 2)
Q E Q E Q E Q E
| | | | | | | |
[/] [/] [/] [/] [/] [/] [/] [/] 
~~~~~~~~~~~~~~~~~ ~~~~~~~~~~~~~~~~~~~
Q E +E Q Q E +E Q
 
 |-15b17===15-(15)-15r---15b17===15-(15)-15r----|
 |----------------------------------------------|
 |----------------------------------------------|
 |----------------------------------------------|
 |----------------------------------------------|
 |----------------------------------------------|

G5(type 2) G6(type 2) G5(type 2)G6(type 2)
Q E Q E Q E Q E
| | | | | | | |
[/] [/] [/] [/] [/] [/] [/] [/] 
Q E +E Q Q E +E E E
 
 |-15b17--15b17==(15)r-15b17---15b17--15-(15)-13h14-|
 |--------------------------------------------------|
 |--------------------------------------------------|
 |--------------------------------------------------|
 |--------------------------------------------------|
 |--------------------------------------------------|

D5(type 2)
Q. q. q. q. q E Q E +H.
| | | | | | | | |
/ o o o o o o / /
Q E Q E Q E Q E E E E Q E Q. Q.
 
 |---------------------------------|--------------------------------||
 |-15---15-13---13-12---12-11---11-|-10-----------------------------||
 |---------------------------------|----12p10h11--------------------||
 |---------------------------------|--------------12----------------||
 |---------------------------------|-----------------12-------------||
 |---------------------------------|-----------------------(12)\----||

Verse
[D5]Gtr II[D6] [D5] [D6]
Q E Q E Q E Q E
| | | | | | | |
[/] [/] [/] [/] [/] [/] [/] [/]  
Gtr I
A Q. Q. Q E E A Q
 
 |--------------------------------|
 |--------------------------------|
 |-8s10--------------/10---10s8---|
 |--------------------------------|
 |--------------------------------|
 |--------------------------------|

[G5] Q E [G6]Q E [G5]Q E [G6]Q E [D5]Q E [D6] Q E [D5]Q E [D6]Q E
| | | | | | | | | | | | | | | |
[/] [/] [/] [/] [/] [/] [/] [/] [/] [/] [/] [/] [/] [/] [/] [/] 
E E E E E E H. Q E Q E A Q E E E E
 
 |--------------------------|-------------------------------|
 |--------------------------|-------10----10s8--------/10---|
 |--------------------------|-------------------/10---------|
 |-10s8---------------------|-------------------------------|
 |------10s8----------------|----10-------------------------|
 |--------------------------|-------------------------------|

[D5] Q E [D6]Q E [D5] Q E [D6]Q E [G5]Q E [G6]Q E [G5]Q E [G6] Q E
| | | | | | | | | | | | | | | |
[/] [/] [/] [/] [/] [/] [/] [/] [/] [/] [/] [/] [/] [/] [/] [/] 
~~~
E E E E E E H. H. Q E E E E
 
 |-/8--------------------------|---------------22s20-------|
 |------10s8-------------------|---------------------22s20-|
 |-----------/10---------------|---------------------------|
 |-----------------10----------|---------------------------|
 |-----------------------------|---------------------------|
 |-----------------------------|---------------------------|

[G5] Q E [G6] Q E [G5] Q E [G6]Q E
| | | | | | | |
[/] [/] [/] [/] [/] [/] [/] [/]  
~~~~~~~
E E E +Q. Q. Q.
 
 |--------------------------------|
 |--------------------------------|
 |-/22----------------------------|
 |-------22-(22)----22\-----------|
 |--------------------------------|
 |--------------------------------|

[D5]Q E [D6] Q E [D5] Q E [D6] Q E
| | | | | | | |
[/] [/] [/] [/] [/] [/] [/] [/]  
Q E Q E E E E E E E
 
 |--------------------------------|
 |-------10-----\8-----10-10-\8---|
 |-----------10----/10------------|
 |----\8--------------------------|
 |--------------------------------|
 |--------------------------------|

[D5] Q E [D6]Q E [D5] Q E [D6] Q E [A5]Q E [A6]Q E [A5]Q E [A6]Q E
| | | | | | | | | | | | | | | |
[/] [/] [/] [/] [/] [/] [/] [/] [/] [/] [/] [/] [/] [/] [/] [/] 
Q E E Q E E E +Q. H. Q E Q E
 
 |-------------------------------|-----------------------|
 |-\8----------------------------|-----------------------|
 |-----10--------10--------------|---------------6s9s=8--|
 |----------10--------\8-(8)\----|-----------------------|
 |-------------------------------|-----------------------|
 |-------------------------------|-----------------------|

[G5] Q E [G6]Q E [G5] Q E [G6] Q E [D5] Q E [D6] Q E [D5] Q E [D6]Q E
| | | | | | | | | | | | | | | |
[/] [/] [/] [/] [/] [/] [/] [/] [/] [/] [/] [/] [/] [/] [/] [/] 
~~~~~~~~~~~~~~~~ ~~~~~~~~~~~~~~~~~
H. +Q. +Q E E E E E E E E E E E Q
 
 |-------------------------------|----10----10----10-10s9------------|
 |-----------------------------xs|=10----10----10---------10s8-------|
 |-------------------------------|-----------------------------10\---|
 |-/10----------(10)----(10)\----|-----------------------------------|
 |-------------------------------|-----------------------------------|
 |-------------------------------|-----------------------------------|

[D5] Q E Q E +Q E Q E
| | | | | | | |
/ o o o / / o o
~~~
E E E E Q Q. Q E
 
 |-10s9------------------------------||
 |------10s8--------------------10---||
 |-----------/10----------/10--(10)--||
 |-----------------------------------||
 |-----------------10----------------||
 |-----------------------------------||

[D5] Q E [D6]Q E [D5] Q E [D6] Q E [G5] Q E [G6]Q E [G5] Q E [G6] Q E
| | | | | | | | | | | | | | | |
[/] [/] [/] [/] [/] [/] [/] [/] [/] [/] [/] [/] [/] [/] [/] [/] 
~~~~ ~~~~
H. +Q. Q E H. +Q. Q E
 
 |--10----------(10)------------|-/10----------(10)\------------|
 |-(10)---------(10)----\8------|-/10----------(10)\----\8------|
 |-(10)---------(10)--------/10-|---------------------------/10-|
 |------------------------------|-------------------------------|
 |------------------------------|-------------------------------|
 |------------------------------|-------------------------------|

[D5]Q E [D6] Q E [D5] Q E [D6] Q E
| | | | | | | |
[/] [/] [/] [/] [/] [/] [/] [/] 
Q E +E Q Q E +E Q
 
 |----/10-(10)-/10---/10--/10-(10)-/10----|
 |----/10-(10)-/10---/10--/10-(10)-/10----|
 |----------------------------------------|
 |----------------------------------------|
 |----------------------------------------|
 |----------------------------------------|

[D5] Q E [D6]Q E [D5]Q E [D6] Q E
| | | | | | | |
[/] [/] [/] [/] [/] [/] [/] [/]  
E E E E E E Q E Q E
 
 |-/17---/14---10--------------------|
 |----------------10s8----------(3)/-|
 |----------------------10------(3)/-|
 |-------------------------10\-------|
 |-----------------------------------|
 |-----------------------------------|

[G5] Q E [G6]Q E [G5]Q E [G6] Q E [G5] Q E [G6]Q E [G5] Q E [G6] Q E
| | | | | | | | | | | | | | | |
[/] [/] [/] [/] [/] [/] [/] [/] [/] [/] [/] [/] [/] [/] [/] [/] 
~~~ ~~~~
H. Q E Q E H. +Q E Q E
 
 |-10--------------------------|-/10----------(10)\----------------|
 |-------------------\8--/(10)-|-/10----------(10)\-----/10\--(0)--|
 |------------------------/10--|-----------------------------------|
 |----------------10-----------|---------------------10------------|
 |-----------------------------|-----------------------------------|
 |-----------------------------|-----------------------------------|

[D5] Q E [D6] Q E [D5] Q E [D6] Q E
| | | | | | | |
[/] [/] [/] [/] [/] [/] [/] [/] 
~~~~~~~~~~~~~~ ~~~~~~~~~~~~~~~~~
[E] [E] [E] [E] [E] [E] [E] [E] [E] [E] [E] [E]  
 
 |---------------------------------------|
 |-/13-13-13-13-13-13-/13-13-13-13-13-13-|
 |------------------------13-13-13-13-13-|
 |---------------------------------------|
 |---------------------------------------|
 |---------------------------------------|

[D5] Q E [D6] Q E [D5] Q E [D6]Q E [A5] Q E [A6]Q E [A5]Q E [A6]Q E
| | | | | | | | | | | | | | | |
[/] [/] [/] [/] [/] [/] [/] [/] [/] [/] [/] [/] [/] [/] [/] [/] 
~~~ ~~~~
Q E Q E Q. A Q E H. Q E E E E
 
 |-------------------------10s9-----|-/12-------------/17---/14---|
 |-/15\------\8------------------10-|-----------------------------|
 |-------/1

Important: The song above is NOT stored on the Chordie server. The original song is hosted at www.guitartabs.cc. Chordie works as a search engine and provides on-the-fly formatting. Chordie does not index songs against artists'/composers' will. To remove this song please click here.

Text color:
Chord color:
Chord grids: 
Font size:    
Page size: 

A5 A6 D5 D6 E G G5 G6
Rate #2 of 13 versions

Login - add to songbook

SHARE PAGE  




You need to log in to post comments