Guitar Tabs, Chords and Lyrics
Major upgrade!! After one year development the new version of Chordie is now online! Please give feedback.


Stormy Monday  The Allman Brothers Band

Band: The Allman Brothers Band
Song: Stormy Monday
Album: Live At the Fillmore East
INTRO:
[D+]  
 
 e----3-3-3--2/3--4--6--3-----------------|
 B----3-3-3--2/3--4--6--3-----------3-----|
 G----3-3-3--2/3--4--6--3----------3------|
 D----2-2-2--1-2--3--5--2---------4-------|
 A------------------------------/5--------|
 E----------------------------------------|

Guitar 1 (Dickey Betts)
[G7] [C9] [G7] [Ab7] [G7] [C9]  
 
 e|---3/5--3----3/5--3----3/5--4--6--3----3/6--3----3/5--3--3/5--3-|
 B|---3/5--3----3/5--3----3/5--4--6--3----3/6--3----3/5--3--3/5--3-|
 G|----------------------------------------------------------------|
 D|----------------------------------------------------------------|
 A|----------------------------------------------------------------|
 E|----------------------------------------------------------------|

[G7] [Am7] [Bm7] [Bbm7] [Am7] [Abm7] [Cm7]  
 
 e|----3-----5-----7-----6-----5-------5---4---5---3---6-------|
 B|----3-----5-----7-----6-----5-------5---4---5---3---4-------|
 G|----4-----5-----7-----6-----5-------5---4---5---3---3-------|
 D|----------------------------------------------------5-------|
 A|------------------------------------------------------------|
 E|------------------------------------------------------------|

[G7] [C9] [G7] [D+]  
 
 e|----3-----3-----3-----------------------|
 B|----3-----3-----3------------3----------|
 G|----4-----3-----4-----------3-----------|
 D|----3-----2-----3----------4------------|
 A|----5-----3-----5-----3-4-5-------------|
 E|----3-----------3-----------------------|

Guitar 2 (Duane Allman)
 
 e|------------------|-------5---5\3----|---------------------|
 B|-------5---5\3----|------------------|--5--5/6--6/8--\5----|
 G|------------------|---3/5---5--------|---------------------|
 D|---3/5---5--------|------------------|--5--5/6--6/8--\5----|
 A|------------------|------------------|---------------------|
 E|------------------|------------------|---------------------|
 e|-------------------3/5--\3--|--10^---------|-----5-4--4\3--|
 B|---5--4--5--6--5------------|--11^---------|---------------|
 G|-------------------3/5--\3--|-------10h12--|-4/5---4--4/3--|
 D|---5--4--5--6--5------------|--------------|---------------|
 A|----------------------------|--------------|---------------|
 E|----------------------------|--------------|---------------|

Solo (Guitar 2)
3:35 G7 C9 G7
 
 e|----------------------10^12-10-6----------------------------------------|
 B|-----------10^12----8------------8----8-8h10r8---8-10-10^11-10^11^10r8--|
 G|------------------------------------9-----------------------------------|
 D|------------------------------------------------------------------------|
 A|------------------------------------------------------------------------|
 E|------------------------------------------------------------------------|

[Ab7] [G7]  
 
 e|-----------------------10^12^10--10^12^10-----------------|
 B|---10^12-10^11--10-8-8---------------------^12^10r8-------|
 G|----------------------------------------------------------|
 D|----------------------------------------------------------|
 A|----------------------------------------------------------|
 E|----------------------------------------------------------|

[C9] [G7]  
 
 e|---6---------------6----------------------------------------|
 B|-----6h8----6h8^11-----6h8----6h8^11------------------------|
 G|------------------------------------------^7^5r3---3h4------|
 D|-------------------------------------------------5----------|
 A|------------------------------------------------------------|
 E|------------------------------------------------------------|

[Am7] [Bm7] [Bbm7]  
 
 e|-----------------------------------------10^12-10-6------|
 B|---------------------------8-10^12^10r8-------------8----|
 G|-----3h4h5/7-5----------/9-------------------------------|
 D|---5-----------5-----------------------------------------|
 A|---------------------------------------------------------|
 E|---------------------------------------------------------|

( Tab from: http://www.guitartabs.cc/tabs/t/the_allman_brothers_band/stormy_monday_tab.html )
[Am7] [Cm7]  
 
 e|------------------------------------------------------------------------|
 B|------8-10^11^10^13^10-8\----11^13^11-------------------11-------11-----|
 G|---/9----------------------------------12-10---------------12-12----12--|
 D|---------------------------------------------12r11r10-------------------|
 A|------------------------------------------------------13----------------|
 E|------------------------------------------------------------------------|

[G7] [C9] [G7] [D+]  
 
 e|---15-18-18^20^18-15-15-----15-----15-----------------------------------|
 B|---------------------18^20--18^20--18^20--------------------------------|
 G|-----------------------------------------------12-14-14^16^14-----------|
 D|-------------------------------------------/14----------------14--12----|
 A|------------------------------------------------------------------------|
 E|------------------------------------------------------------------------|

4:23 G7 C9
 
 e|----------------------------------------15------------------------------|
 B|-------------15^17-12-15-15^17^15-15^18-15^17---------------------------|
 G|-------12-12----------------------------------^16^12------12h14---------|
 D|---/14------------------------------------------------/14-------14------|
 A|------------------------------------------------------------------------|
 E|------------------------------------------------------------------------|

[G7]  
 
 e|-------------------------------------------------------------------------|
 B|----------------------15^17-15-15-15^17-15-15^17^18^17^18^17^18^17^18^15-|
 G|-------12h14-------12----------------------------------------------------|
 D|-12h14-------12h14-------------------------------------------------------|
 A|-------------------------------------------------------------------------|
 E|-------------------------------------------------------------------------|

[C9]  
 
 e|-------------------------------------------------------|
 B|---18^20-18-15-----------------------------------------|
 G|---------------^16^14-12-------12-14-14^16^14----------|
 D|---------------------------/14-------------------------|
 A|----------------------------------------------15-------|
 E|-------------------------------------------------------|

[G7]  
 
 e|---------------------------10-------------10-----------|
 B|------8-10^12^10-8-8----10^12-12^10----10^12-12^10^12--|
 G|---/9--------------------------------------------------|
 D|-------------------------------------------------------|
 A|-------------------------------------------------------|
 E|-------------------------------------------------------|

[Am7] [Bm7] [Bbm7]  
 
 e|------------------------------------------------|
 B|---^12^10-8-11^13-13^11-8-12^15-10^12^10-8-8----|
 G|------------------------------------------------|
 D|------------------------------------------------|
 A|------------------------------------------------|
 E|------------------------------------------------|

[Am7] [Cm7]  
 
 e|------------------------------------------------------------------------|
 B|------8-10^12-10^12-10^12-10^12-10^12-10^12-10^12^10-8-10-10^11-10-8----|
 G|---/9-------------------------------------------------------------------|
 D|------------------------------------------------------------------------|
 A|------------------------------------------------------------------------|
 E|------------------------------------------------------------------------|

[G7] [C9]  
 
 e|-----------------------15-18r15-------15--15----15--------17r15----15---|
 B|---6-3---------/8-----/15----------15-----18^20-18^20--15-------15------|
 G|-------5^7^5-3----------------------------------------------------------|
 D|------------------------------------------------------------------------|
 A|------------------------------------------------------------------------|
 E|------------------------------------------------------------------------|

[G7] [D+]  
 
 e|---15----15-------------------------------|
 B|---18^20-18^20^18-15-17-17^18-17-15-------|
 G|------------------------------------------|
 D|------------------------------------------|
 A|------------------------------------------|
 E|------------------------------------------|

Organ Solo
Guitar Solo (Guitar 1)
8:23
 
 e|---10^-10^-10^-------| This part is repeated twice over
 B|---11^-11^-11^-------| chords G7 C9 and G7
 G|---------------12----|
 D|---------------------|
 A|---------------------|
 E|---------------------|


Important: The song above is NOT stored on the Chordie server. The original song is hosted at www.guitartabs.cc. Chordie works as a search engine and provides on-the-fly formatting. Chordie does not index songs against artists'/composers' will. To remove this song please click here.

Text color:
Chord color:
Chord grids: 
Font size:    
Page size: 

Ab7 Abm7 Am7 Bbm7 Bm7 Cm7 D+ G7
Rate #1 of 16 versions

Jango Player

Login - add to songbook

SHARE PAGE  




You need to log in to post comments