Guitar Tabs, Chords and Lyrics
Update 25:10. 13:00. Site is back up running again. Songbooks are recovered. Woring on getting search back up..


Come Follow Me  The Answer

Tabbed by: Meticulous
Tuning: Standard
This is my first 'real' tab, so cut me some slack if a few parts are messed =)
Legend
b = bend
~ = vibrato
() = ghost note (meaning it's tied to the previous note)
. = dotted note (when it's underneath the tablature, it means to palm mute)
W = whole note
H = nalf note
Q = quarter note
E = eighth note
S = sixteenth note
-3- = triplet
Intro Riff (starts on off-beat of beat 4)
 
 e|----|-------------------|---------------|
 B|----|-------------------|---------------|
 G|----|-------------------|---------------|
 D|-7~-|-(7)-7-5-----------|---------------|
 A|----|---------7-6-5-0-3-|-(3)-----------|
 E|----|-------------------|-----0-5-0-3-0-|

Play three times, and on the fourth time end with
 
 e|---------------|
 B|---------------|
 G|---------------|
 D|---------------|
 A|-------------7-|
 E|-0-5-0-3-0-0-5-|

Verse 1
 
 e|-------------------|-----------------|------------------|--------------------|
 B|-------------------|-----------------|------------------|--------------------|
 G|-------------------|-----------------|------------------|--------------------|
 D|-------------------|-----------------|------------------|--------------------|
 A|-(7)-7-------------|-----------------|---------------3~-|-(3)-3-3------------|
 E|-(5)-5-5-5-5-5-5-5-|-5-5-5-5-5-5-5-5-|-5-5-5-5-5-5-5----|---------3~-3-3--5~-|

. . . . . . . . . . . . . . . . . . . . .
 
 e|-------------------|-----------------|------------------|--------------------|
 B|-------------------|-----------------|------------------|--------------------|
 G|-------------------|-----------------|------------------|--------------------|
 D|-------------------|-----------------|------------------|-----------------7--|
 A|-------------------|-----------------|---------------3~-|-(3)-3-3---------5--|
 E|-(5)-5-5-5-5-5-5-5-|-5-5-5-5-5-5-5-5-|-5-5-5-5-5-5-5----|----------3~-3-3----|

. . . . . . . . . . . . . . . . . . . . .
 
 e|-------------------|-----------------|-----------------|------------------|
 B|-------------------|-----------------|-----------------|------------------|
 G|-------------------|-----------------|-----------------|------------------|
 D|-(7)-7-7-7-7-7-7-7-|-7-7-7-7-7-7-7-7-|-----------------|---------------7~-|
 A|-(5)-5-5-5-5-5-5-5-|-5-5-5-5-5-5-5-5-|-2-3-3-3-3-3-3-3-|-3-5-5-5-5-5-5----|
 E|-------------------|-----------------|-0-1-1-1-1-1-1-1-|-1-5-5-5-5-5-5----|
 e|--------------------|--------------------|-------------------|-------------------|
 B|--------------------|--------------------|-------------------|-------------------|
 G|--------------------|--------------------|-------------------|-------------------|
 D|-(7)-7-5---------7~-|-(7)-7-5---------7~-|-(7)-7-5-----------|-------------------|
 A|---------7-6-5-0----|---------7-6-5-0----|---------7-6-5-0-3-|-(3)-0-5-0-3-0---7-|
 E|--------------------|--------------------|-------------------|---------------3-5-|
 e|-------------------|-----------------|------------------|-------------------|
 B|-------------------|-----------------|------------------|-------------------|
 G|-------------------|-----------------|------------------|-------------------|
 D|-------------------|-----------------|------------------|-------------------|
 A|-(7)-7-------------|-----------------|---------------3~-|-(3)-3-3-----------|
 E|-(5)-5-5-5-5-5-5-5-|-5-5-5-5-5-5-5-5-|-5-5-5-5-5-5-5----|---------3~-3-3-5~-|

. . . . . . . . . . . . . . . . . . . . .
 
 e|-------------------|-----------------|-----------------|-------------------|
 B|-------------------|-----------------|-----------------|-------------------|
 G|-------------------|-----------------|-----------------|-------------------|
 D|-------------------|-----------------|---------------5-|-(5)-5-5---------7-|
 A|-------------------|-----------------|---------------3-|-(3)-3-3--5--5-5-5-|
 E|-(5)-5-5-5-5-5-5-5-|-5-5-5-5-5-5-5-5-|-5-5-5-5-5-5-5---|----------3--3-3---|

. . . . . . . . . . . . . . . . . . . . .
 
 e|-------------------|-----------------|-----------------|------------------|
 B|-------------------|-----------------|-----------------|------------------|
 G|-------------------|-----------------|-----------------|------------------|
 D|-(7)-7-7-7-7-7-7-7-|-7-7-7-7-7-7-7-7-|-----------------|---------------7~-|
 A|-(5)-5-5-5-5-5-5-5-|-5-5-5-5-5-5-5-5-|-2-3-3-3-3-3-3-3-|-3-5-5-5-5-5-5----|
 E|-------------------|-----------------|-0-1-1-1-1-1-1-1-|-1-5-5-5-5-5-5----|
 e|--------------------|--------------------|-------------------|------------------|
 B|--------------------|--------------------|-------------------|------------------|
 G|--------------------|--------------------|-------------------|------------------|
 D|-(7)-7-5---------7~-|-(7)-7-5---------7~-|-(7)-7-5-----------|------------------|
 A|---------7-6-5-0----|---------7-6-5-0----|---------7-6-5-0-3-|-(3)-0-5-0-3-0----|
 E|--------------------|--------------------|-------------------|---------------0--|

Chorus
 
 e|------------|--------------------|-------------|--------------|
 B|------------|--------------------|-------------|--------------|
 G|------------|--------------------|-------------|--------------|
 D|-----7------|--------------------|-------------|--------------|
 A|-5---5---7--|-(7)-0-3-0-2-0---4--|-(4)-------5-|-(5)----------|
 E|-3-------5--|-(5)-----------3-2--|-(2)-------3-|-(3)----------|

Play three times, then:
 
 e|-----------------|-----------------|-------------------|------------------|
 B|-----------------|-----------------|-------------------|------------------|
 G|-----------------|-----------------|-------------------|------------------|
 D|-5-5-5-5-5-5-5-5-|-5-5-5-5-5-5-5-7-|-(7)-7-7-7-7-7-7-7-|-7-7-7-7-7-7-7-7~-|
 A|-3-3-3-3-3-3-3-3-|-3-3-3-3-3-3-3-5-|-(5)-5-5-5-5-5-5-5-|-5-5-5-5-5-5-5----|
 E|-----------------|-----------------|-------------------|------------------|

Intro Riff Again
 
 e|-------------------|-------------------|-------------------|-------------------|
 B|-------------------|-------------------|-------------------|-------------------|
 G|-------------------|-------------------|-------------------|-------------------|
 D|-(7)-7-5-----------|----------------7~-|-(7)-7-5-----------|-------------------|
 A|---------7-6-5-0-3-|-(3)---------------|---------7-6-5-0-3-|-(3)-------------7-|
 E|-------------------|-----0-5-0-3-0-----|-------------------|-----0-5-0-3-0-0-5-|

Verse 2
 
 e|--------------|--------------|---------------|--------------------|
 B|--------------|--------------|---------------|--------------------|
 G|--------------|--------------|---------------|--------------------|
 D|--------------|--------------|---------------|--------------------|
 A|-(7)-7----7-7-|-(7)-7----7-7-|-(7)-7----7-3~-|-(3)-3-3------------|
 E|-(5)-5----5-5-|-(5)-5----5-5-|-(5)-5----5----|---------3~--3-3-5~-|
 e|-------------------|-------------------|-------------------|------------------|
 B|-------------------|-------------------|-------------------|------------------|
 G|-------------------|-------------------|-------------------|------------------|
 D|-------------------|-------------------|-----------------5-|-(5)-5-5--------7-|
 A|-------------7-9-7-|-(7)-7-----------7-|-(7)-7-----------3-|-(3)-3-3-5--5-5-5-|
 E|-(5)-5-5-5-5-5-7-5-|-(5)-5-5-5-5-5-5-5-|-(5)-5-5-5-5-5-5---|---------3--3-3---|

. . . . . . . . . . . . .
 
 e|-------------------|-----------------|-----------------|------------------|
 B|-------------------|-----------------|-----------------|------------------|
 G|-------------------|-----------------|-----------------|------------------|
 D|-(7)-7-7-7-7-7-7-7-|-7-7-7-7-7-7-7-7-|-----------------|---------------7~-|
 A|-(5)-5-5-5-5-5-5-5-|-5-5-5-5-5-5-5-5-|-2-3-3-3-3-3-3-3-|-3-5-5-5-5-5-5----|
 E|-------------------|-----------------|-0-1-1-1-1-1-1-1-|-1-5-5-5-5-5-5----|
 e|--------------------|--------------------|-------------------|------------------|
 B|--------------------|--------------------|-------------------|------------------|
 G|--------------------|--------------------|-------------------|------------------|
 D|-(7)-7-5---------7~-|-(7)-7-5---------7~-|-(7)-7-5-----------|------------------|
 A|---------7-6-5-0----|---------7-6-5-0----|---------7-6-5-0-3-|-(3)-0-5-0-3-0----|
 E|--------------------|--------------------|-------------------|---------------0--|

Chorus 2
Play the same thing, but on the last bar end with (on the offbeat of beat 4) a C5 chord
and then go into this for the last four bars.
 
 e|-------------------|-----------------|------------------|-----------------|
 B|-------------------|-----------------|------------------|-----------------|
 G|-------------------|-----------------|------------------|-----------------|
 D|-(5)-5-5-5-5-5-5-5-|-5-5-5-5-5-5-5-7-|-(7)-7-5-7--7-5-7-|-(7)-7-5-7--7-5--|
 A|-(3)-3-3-3-3-3-3-3-|-3-3-3-3-3-3-3-5-|-(5)-5-3-5--5-3-5-|-(5)-5-3-5--5-3--|
 E|-------------------|-----------------|------------------|-----------------|

Pre-Solo Riff
 
 e|---------------|----------------|-----------------|--------------|
 B|---------------|----------------|-----------------|--------------|
 G|---------------|----------------|-----------------|--------------|
 D|---------------|----------------|--------------7--|-(7)----------|
 A|---------------|----2-0-5-4-2---|--------------5--|-(5)-4---5----|
 E|-5--3-0-5--0-2-|-3------------5-|-(5)-5-3-0-5-----|-----2---3----|

Play four times, but on the last bar on the fourth time play this instead before going
the solo.
"...down...knock down..."
 
 e|--------------|
 B|--------------|
 G|--------------|
 D|-(7)-----7----|
 A|-(5)--5--5----|
 E|------3-------|

Solo
"never knock me..."
E E E E H W E E S S S S S S S S E E E Q S S E E E E
 
 e|----------------|-----|----------------10-8p7h8p7-----|----------------------|
 B|----------------|-----|---------7-8-10------------8---|----------------------|
 G|---------7b9----|-(7)-|-(7)-7b9---------------------9-|-7-7b9--7----7---7----|
 D|-5-5-5-5--------|-----|-------------------------------|----------10---9---10-|
 A|-3-3-3-3--------|-----|-------------------------------|----------------------|
 E|----------------|-----|-------------------------------|----------------------|

This bar is in 2/4
Q E E
 
 e|-----------|
 B|-----------|
 G|-----------|

D|-(10)--7-7-|
 
 A|-----------|
 E|-----------|

Back to 4/4 ^_^
E E E E E E Q E E E E H S S S S E [--3--]S S S E S S S S E S S
H.
 
 e|---------------------|-------------|---------------------10b12-8-10-12-10-12-|-15-12-15b17-(15)|
 B|---------------------|-------------|----------------8-10---------------------|-----------------|
 G|--------------7-7b9--|-7-----------|----------7b9-9--------------------------|-----------------|
 D|-10-7----10-7--------|---7-7-7-(7)-|-----7-10--------------------------------|-----------------|
 A|------10-------------|-------------|-7-9-------------------------------------|-----------------|
 E|---------------------|-------------|-----------------------------------------|-----------------|

E. S S S E. S S S E. S S S E. S S S E. S S S E
 
 e|-------17p15----------17p15----------17P-|-15----------17p15--------------17p15----------|
 B|-15b17-------15-15b17-------15-15b17-----|----15-15b17-------15-15b17-----------15-15b17-|
 G|-----------------------------------------|-----------------------------------------------|
 D|-----------------------------------------|-----------------------------------------------|
 A|-----------------------------------------|-----------------------------------------------|
 E|-----------------------------------------|-----------------------------------------------|

S S S S S S S S S S S S S S E
 
 e|------17p15-------15-17-15----------15-17-15----|
 B|-(15)-------15-17----------17-15-17----------17-|
 G|------------------------------------------------|
 D|------------------------------------------------|
 A|------------------------------------------------|
 E|------------------------------------------------|

S S S S S S S S S S S S S S S S
 
 e|----15-17-20-17-15----------15-17-20-17-15-------|
 B|-17----------------17-15-17----------------17-15-|
 G|-------------------------------------------------|
 D|-------------------------------------------------|
 A|-------------------------------------------------|
 E|-------------------------------------------------|

S S S S S S S S S S Q S S
 
 e|----15-17-20-17-15-------17-20-20b21-17-20-|
 B|-17----------------17-15-------------------|
 G|-------------------------------------------|
 D|-------------------------------------------|
 A|-------------------------------------------|
 E|-------------------------------------------|

Q S S Q S S S S S
 
 e|-20b21-17-20-20b21-20-20-19-17----|
 B|-------------------------------17-|
 G|----------------------------------|
 D|----------------------------------|
 A|----------------------------------|
 E|----------------------------------|

S S S S S S S S S S S S S S S S
 
 E|-20-19-17-20-19-17-20-19-17-20-19-17-20-19-17-20-|
 B|-------------------------------------------------|
 G|-------------------------------------------------|
 D|-------------------------------------------------|
 A|-------------------------------------------------|
 E|-------------------------------------------------|

S S S S S S S S S S S S S S S S
 
 E|-19-17-20-19-17-20-19-17-20-19-17-20-19-20-20-22-|
 B|-------------------------------------------------|
 G|-------------------------------------------------|
 D|-------------------------------------------------|
 A|-------------------------------------------------|
 E|-------------------------------------------------|

[E] [B] [E] [E] [E] [E] [E] [E] [E] [B]  
 
 e|-22b24-(22)-22-22-22-|-22b24-22-20-17-(17)-|
 B|---------------------|---------------------|
 G|---------------------|---------------------|
 D|---------------------|---------------------|
 A|---------------------|---------------------|
 E|---------------------|---------------------|

Back to the Verse Riff
 
 e|-----------------|------------------|
 B|-----------------|------------------|
 G|-----------------|------------------|
 D|-----------------|---------------7~-|
 A|-2-3-3-3-3-3-3-3-|-3-5-5-5-5-5-5----|
 E|-0-1-1-1-1-1-1-1-|-1-5-5-5-5-5-5----|
 e|--------------------|--------------------|-------------------|------------------|
 B|--------------------|--------------------|-------------------|------------------|
 G|--------------------|--------------------|-------------------|------------------|
 D|-(7)-7-5---------7~-|-(7)-7-5---------7~-|-(7)-7-5-----------|------------------|
 A|---------7-6-5-0----|---------7-6-5-0----|---------7-6-5-0-3-|-(3)-0-5-0-3-0----|
 E|--------------------|--------------------|-------------------|---------------0--|

Chorus 3
This time, play the first four bars of the Chorus four times before going into the
licks afterwards.
Licks
First one starts on the offbeat of beat four
E E E E E Q. ER H.R+ER E Q S S S S
 
 e|------|----------------|-------15b17-|-(15)-15-----------|
 B|-8b10-|-(8)-8----------|-------------|----------17-15----|
 G|------|-------9-7------|-------------|----------------17-|
 D|------|-----------10---|-------------|-------------------|
 A|------|----------------|-------------|-------------------|
 E|------|----------------|-------------|-------------------|

Starts on offbeat of beat 4 again
E E S S E Q S S E E E S S E Q S S E E
[E]  
 
 e|-------|------20p17----------20p17----------|------20p17----------20p17------------|---------|
 B|-20b22-|-(20)-------20-20b22-------20-20b22-|-(20)-------20-20b22---------20-20b22-|-(20)-7~-|
 G|-------|------------------------------------|--------------------------------------|---------|
 D|-------|------------------------------------|--------------------------------------|---------|
 A|-------|------------------------------------|--------------------------------------|---------|
 E|-------|------------------------------------|--------------------------------------|---------|

Outro
 
 e|--------------------|--------------------|-------------------|-------------------|
 B|--------------------|--------------------|-------------------|-------------------|
 G|--------------------|--------------------|-------------------|-------------------|
 D|-(7)-7-5---------7~-|-(7)-7-5---------7~-|-(7)-7-5---------5-|-(5)-5-5-----------|
 A|---------7-6-5-0----|---------7-6-5-0----|---------7-6-5-0-3-|-(3)-3-3-5--5-5-7~-|
 E|--------------------|--------------------|-------------------|---------3--3-3----|
 e|--------------------|--------------------|-------------------|-------------------|
 B|--------------------|--------------------|-------------------|-------------------|
 G|--------------------|--------------------|-------------------|-------------------|
 D|-(7)-7-5---------7~-|-(7)-7-5---------7~-|-(7)-7-5-----------|-------------------|
 A|---------7-6-5-0----|---------7-6-5-0----|---------7-6-5-0-3-|-(3)-0-5-0-3-0---7-|
 E|--------------------|--------------------|-------------------|---------------3-5-|

Enjoy guys!

Important: The song above is NOT stored on the Chordie server. The original song is hosted at www.guitartabs.cc. Chordie works as a search engine and provides on-the-fly formatting. Chordie does not index songs against artists'/composers' will. To remove this song please click here.

Text color:
Chord color:
Chord grids: 
Font size:    
Page size: 

B E
Rate #3 of 5 versions

Login - add to songbook

SHARE PAGE  



You need to log in to post comments