Guitar Tabs, Chords and Lyrics
Server problems seems to be fixed. Chordie has been experiencing problems with songs disappearing. These issues now seems to be fixed, but still verifying the fix. If you find anything strange, please email admin@chordie.com.


Graveyard Gloria F.O.D.  The Bones

visit www.bonesrocknroll.com for information about this great swedish band
 
 -------------------------------------------------------------------------------

SONG NAME - Band Name
 
 -------------------------------------------------------------------------------

Tabbed by:Schleichi
Email: Lemmyfredericksen@yahoo.com
Tuning:standard
INTRO
play every chord twice
 
 e|------------------------------------------------------------------------|
 B|------------------------------------------------------------------------|
 G|---------------4-4--------------------4-4-4-4-4-4------4-4-4-4-4-4-4-4--|
 D|-4-4-4-4-4-4-4-4-4---4-4-4-4-4-4------4-4-4-4-4-4-2-2--4-4-4-4-4-4-4-4--|
 A|-4-4-4-4-4-4-4-2-2---4-4-4-4-4-4-2-2--2-2-2-2-2-2-0-0--2-2-2-2-2-2-2-2--|
 E|-2-2-2-2-2-2-2-------2-2-2-2-2-2-0-0------------------------------------|
 e|---------------------------------------|
 B|---------------------------------------|
 G|----------------4-4--------------------|
 D|--4-4-4-4-4-4-4-4-4---4-4-4-4-4-4-4-4--|
 A|--4-4-4-4-4-4-4-2-2---4-4-4-4-4-4-4-4--|
 E|--2-2-2-2-2-2-2-------2-2-2-2-2-2-2-2--|

INTRO part II / Chorus
 
 B|-7----------5--------7----------7-5-7-8-9--|
 e|-------------------------------------------|
 B|-------------------------------------------|
 G|------------2-2-2-2--4-4-4-4----4-2-4-5-6--|
 D|---4-4-4-4--2-2-2-2--4-4-4-4----4-2-4-5-6--|
 A|---4-4-4-4--0-0-0-0--2-2-2-2----2-0-2-3-4--|
 E|---2-2-2-2---------------------------------|

VERSE 1
[F#]Your nightmare, my reality
I met the pompom-girl down at Rockaway Beach
[B]Alright, we were g[A]etting h[B]igh
[F#]Backseat wrestling in a dead-end street
She bit my neck and sucked the life outta me
[B]Alright, really s[A]ucked me [B]dry
Chorus: (like intro part II)
[F#]Why did you have to s[A]et my girl you had to [B]set my girl on f[B]ire?[A] [B] [C] [C#]
LIKE VERSE 1
Fishnet-stockings, seven inch high heels
A coffinparty with my cemetary queen
Alright! In a ring of fire
Time-to-die-boogie in the midnight fog
She's makin' me howl like a horny devil dog
Alright! Baby let's go wild
 
 ----Repeat Chorus-----

Fb =full Bend
[B] [E] [B] [F#] [E] [F#]  
 
 e|----------------------------------------------------------------------------|
 B|----------------6--------1--------------------------------------------------|
 G|-4-2-4-5-6------8-Fb-----3-Fb-----------------------------------------------|
 D|-------------------------------3h4-3h4-3h4-3h4-4p3---3h4-3h4-3h4-3h4-4p3----|
 A|--------------------------------------------------4----------------------4--|
 E|----------------------------------------------------------------------------|

[E] [B]  
 
 e|------------------------------------------------------------------|
 B|--14-12--12---12---14-12--12--12---14-12--12--12---14-12--12--12--|
 G|-------14--14-----------14--14----------14--14----------14--14----|
 D|------------------------------------------------------------------|
 A|------------------------------------------------------------------|
 E|------------------------------------------------------------------|

[F#]  
 
 e|-------------------------------------------------------------------------|
 B|-------------------------------------------------------------------------|
 G|-------------------------------------------------------------------------|
 D|-14h16--14h16--14h16-14h16-16p14------14h16--14h16--14h16-14h16-16p14----|
 A|--------------------------------16-----------------------------------16--|
 E|-------------------------------------------------------------------------|

Like Verse 1
Let me tell you about that special feeling
To see your rotting face smiling at me
Alright! It really makes me wild
I would do anything to keep this girl
I'm gonna kick some ass, I'm gonna rule this world
Alright! Yeah Worldwide
Repeat Chorus
| / slide up
| \ slide down
| h hammer-on
| p pull-off
| ~ vibrato
| + harmonic
| x Mute note
===============================================================================

Important: The song above is NOT stored on the Chordie server. The original song is hosted at www.guitartabs.cc. Chordie works as a search engine and provides on-the-fly formatting. Chordie does not index songs against artists'/composers' will. To remove this song please click here.

Text color:
Chord color:
Chord grids: 
Font size:    
Page size: 

A B C C# E F#
Rate #1 of 1 versions

Login - add to songbook

SHARE PAGE  



You need to log in to post comments