Guitar Tabs, Chords and Lyrics
Server problems seems to be fixed. Chordie has been experiencing problems with songs disappearing. These issues now seems to be fixed, but still verifying the fix. If you find anything strange, please email admin@chordie.com.


Memphis '77  The Bones

 
 -----------------------------------------------------------------------------

Memphis 77 - The Bones
 
 -----------------------------------------------------------------------------

Tabbed by: schleichi
Email: Lemmyfredericksen@yahoo.de
Tuning: standard
E E7 A A7 choose between B and B7
 
 e|-----0---0-0-0---0--0-0-0---|------0-0-0---3--0--|---------2--------------|
 B|-----0---0-0-0---3--3-3-3---|------2-2-2---2--2--|--4------0--------------|
 G|-----1---1-1-1---1--1-1-1---|---2--2-2-2---2--2--|--4-and--2-(B7)---------|
 D|--2--------------2--2-2-2---|---2----------------|--4------1--------------|
 A|--2-------------------------|---0----------------|--2------2--------------|
 E|--0-------------------------|--------------------|------------------------|

Part I
Intro = 4x Part I
Back in '[E]77 bab[E7]y, I cou[E]ldn't take no m[E7]ore
I rem[E]ember it like it was y[E7]esterday, I was p[E]issed and I was [E7]bored
That st[A]inkin' life just scared [A7]me
I c[A]hallanged death f[A7]or a roma[E]nce[E7]
Well, t[B]akin' care of busi[A]ness
And I kicked everybody's [E]ass
Play full chords with distortion
I ne[E]ver left the building, they fo[E]und me on the floor
The wo[E]rld just screamed - "The Ki[E]ng is dead, he wo[E]n't come back no more!"
I cru[A]ised down the lonely highway with a big smile on my f[E]ace
Yeah I sc[B]rewed you all [A] I fucked the whole human [E]race
[E] [/E7] T [A]p T p T p p T[E]
 
 e|----------------------5-3-7-3-5-3--0-3------------------------------------|
 B|---------------------------(x4)-------------------------------------------|
 G|---12p14-1414h12--------------------------------12p14-1414h12-------------|
 D|-------(x8)------------------------------------------x4-------------------|
 A|--------------------------------------------------------------------------|
 E|--------------------------------------------------------------------------|

Fb=Full Bend
[B] [A]  
 
 e|--------------------------------------------------------------------------|
 B|---12------15----15-------------------------------------------------------|
 G|---14Fb----17Fb--17Fb-release---------------------------------------------|
 D|------------------------------------5-7--7/9--7-5-7------5~~~9~~~~14~~~~--|
 A|----------------------------------7-----------------7~~~------------------|
 E|--------------------------------------------------------------------------|

[E]Just leave it, leave it, leave it Leave it, let it go
Forget this case, yeah fuck the truth I won't come back no more
[A]Another grat rock'n'roll swindle My middlefinger in the a[E]ir
To this w[B]orld of stupid lowlives[A7] I guess you'll never underst[E]and
| / slide up
| \ slide down
| h hammer-on
| p pull-off
| ~ vibrato
| + harmonic
| x Mute note
=============================================================================

Important: The song above is NOT stored on the Chordie server. The original song is hosted at www.guitartabs.cc. Chordie works as a search engine and provides on-the-fly formatting. Chordie does not index songs against artists'/composers' will. To remove this song please click here.

Text color:
Chord color:
Chord grids: 
Font size:    
Page size: 

A A7 B E E7
Rate #1 of 1 versions

Jango Player

Login - add to songbook

SHARE PAGE  



You need to log in to post comments