Guitar Tabs, Chords and Lyrics
Server problems seems to be fixed. Chordie has been experiencing problems with songs disappearing. These issues now seems to be fixed, but still verifying the fix. If you find anything strange, please email admin@chordie.com.


Second Skin  The Chameleons

This Never Ending Now
 
 --------------------------------------------------

Tabbed by Klaus Hurskainen
klaus.hurskainen@elisanet.fi
Tuning: Standard
 
 --------------------------------------------------

INTRO
 
 --------------------------------------------------

GUITAR I
 
 |--------------|-----------------|-----------------|
 |--------------|-----------------|-------------8-8-|
 |----------7-7-|-9-9-9-9-9-9-9-9-|-9-9-7-7-9-9-----|
 |--7-7-9-9-----|-----------------|-----------------|
 |--------------|-----------------|-----------------|
 |--------------|-----------------|-----------------|

(only first time)
 
 -----------------|--------------------|-----------------|
 -----------------|--------------------|-----------------|
 -----------------|--------------------|-------0-------0-| X2
 -9-9-9-9-7-7-7-7-|--------------------|---9-------9-----|
 -----------------|10-10-10-10-9-9-9-9-|-7---7-------7---|
 -----------------|--------------------|-----------------|

GUITAR II (strums each chord once)
Em, Am, Dsus4, D, Em X2
 
 --------------------------------------------------

VERSE 1
 
 --------------------------------------------------

GUITAR I
One [Em]cold damp evening
The world stood still[C]
I [Am]watched as I h[D]eld my breath
A s[Em]ilhouette I thought I knew[C]
Came throu[Am]gh
And someone spoke to me[D]
[Em]Whispered in my ear[C]
This fantasy's for you[Am]
[D]Fantasies are "in" t[Em]his year
GUITAR II (strums each chord once)
Em, C, Am, D, Dsus4 X3
 
 --------------------------------------------------

RIFF
 
 --------------------------------------------------

GUITAR I
 
 |--------------|-----------------|-----------------|
 |--------------|-----------------|-------------8-8-|
 |----------7-7-|-9-9-9-9-9-9-9-9-|-9-9-7-7-9-9-----|
 |--7-7-9-9-----|-----------------|-----------------|
 |--------------|-----------------|-----------------|
 |--------------|-----------------|-----------------|

(only first time)
 
 -----------------|--------------------|-----------------|
 -----------------|--------------------|-----------------|
 -----------------|--------------------|-------0-------0-| X2
 -9-9-9-9-7-7-7-7-|--------------------|---9-------9-----|
 -----------------|10-10-10-10-9-9-9-9-|-7---7-------7---|
 -----------------|--------------------|-----------------|

GUITAR II
C, Am, Dsus4, D, Em X2
 
 --------------------------------------------------

VERSE 2
 
 --------------------------------------------------

GUITAR I
My who[Em]le life flashed before my eyes[C]
I [Am]thought
What they say is true[D]
I [Em]shed my skin and my disguise[C]
And cold[Am], numb and naked[D]
I [Em]emerged from my cocoon
[C] While a half remembered tun[Am]e
Played sof[D]tly in my head[Em]
He said
GUITAR II (strums each chord once)
Em, C, Am, D, Dsus4 X3
 
 --------------------------------------------------

RIFF
 
 --------------------------------------------------

GUITAR I
 
 |--------------|-----------------|-----------------|
 |--------------|-----------------|-------------8-8-|
 |----------7-7-|-9-9-9-9-9-9-9-9-|-9-9-7-7-9-9-----|
 |--7-7-9-9-----|-----------------|-----------------|
 |--------------|-----------------|-----------------|
 |--------------|-----------------|-----------------|

(only first time)
 
 -----------------|--------------------|-----------------|
 -----------------|--------------------|-----------------|
 -----------------|--------------------|-------0-------0-| X2
 -9-9-9-9-7-7-7-7-|--------------------|---9-------9-----|
 -----------------|10-10-10-10-9-9-9-9-|-7---7-------7---|
 -----------------|--------------------|-----------------|

GUITAR II
C, Am, Dsus4, D, Em X2
 
 --------------------------------------------------

BREAK
 
 --------------------------------------------------

GUITAR I+II
Then he turned smiling
E, Em
[And]E, E[said]m
[E]  
 
 --------------------------------------------------

SECOND PART OF SONG
 
 --------------------------------------------------

GUITAR I (palm muted)
 
 e|-------------------|
 B|-------------------|
 G|-2//-0-4//--2////--|
 D|-4//-0-2//--0////--|
 A|-------------------|
 E|-------------------|

I realise a miracle is due
I dedicate this melody to you
I realise a miracle is due
I dedicate this melody to you
But is this the stuff dreams are made of
If this is the stuff dreams are made of
No wonder I feel like I'm floating on air
No wonder I feel like I'm floating on air
GUITAR I
 
 e|-------0---------0-------------0---------0------|
 B|---------3---------3-------------3---------3----|
 G|---2---------4-------4-----2---------2-------2--|
 D|-4---2-----2---2---------0---2-----0---0--------|
 A|------------------------------------------------|
 E|------------------------------------------------|

GUITAR II
F#m, E, D
I realise a miracle is due
I dedicate this melody to you
But is this the stuff dreams are made of
If this is the stuff dreams are made of
No wonder I feel like I'm floating on air
No wonder I feel like I'm floating on air
No wonder I feel like I'm floating on
Floating on air
GUITAR I
 
 e|-----------------------------------------------------------|
 B|--------0------------0----------------0----------0---------|
 G|----2------2-----4------4---4-----2------2---2------2----2-|
 D|-4----4------4-2---2------2----0----0------0---0------0----|
 A|-----------------------------------------------------------|
 E|-----------------------------------------------------------|

GUITAR II (palm muted)
F#m, E, D
Now it feels like I'm everywhere
Now it feels like I'm everywhere
GUITAR I+II
 
 e|-------------------|
 B|-------------------|
 G|-2//-0-4//--2////--|
 D|-4//-0-2//--0////--|
 A|-------------------|
 E|-------------------|

It's like you fail to make the connection
You know how vital it is
Or when something slips through your fingers
You know how precious it is
Well you reach the point where you know it's
only your second skin
It's only your second skin
GUITAR I (varies between palm muting and playing the arpeggio)
 
 e|-------------------------------------|
 B|--------0------------0---------------|
 G|----2------2-----4------4---4--2////-|
 D|-4----4------4-2---2------2----0////-|
 A|-------------------------------------|
 E|-------------------------------------|

GUITAR II (palm muted)
F#m, E, D
I heard someone banging on my door
I heard someone banging on my door
Let 'em in...
Come in here
GUITAR I
 
 e|-------0---------0-------------0---------0------|
 B|---------3---------3-------------3---------3----|
 G|---2---------4-------4-----2---------2-------2--|
 D|-4---2-----2---2---------0---2-----0---0--------|
 A|------------------------------------------------|
 E|------------------------------------------------|

GUITAR II
F#m, E, D
Last night I said these words to my girl
Last night I said these words to my girl
GUITAR I
 
 e|-----------------------------------------------------------|
 B|--------0------------0----------------0----------0---------|
 G|----2------2-----4------4---4-----2------2---2------2----2-|
 D|-4----4------4-2---2------2----0----0------0---0------0----|
 A|-----------------------------------------------------------|
 E|-----------------------------------------------------------|

GUITAR II
F#m, E, D-Dsus4-D
C'mon, C'mon
C'mon, C'mon
C'mon, C'mon
[F#m]  
 
 --------------------------------------------------

END

Important: The song above is NOT stored on the Chordie server. The original song is hosted at www.guitartabs.cc. Chordie works as a search engine and provides on-the-fly formatting. Chordie does not index songs against artists'/composers' will. To remove this song please click here.

Text color:
Chord color:
Chord grids: 
Font size:    
Page size: 

Am C D E Em F#m
Rate #3 of 3 versions

Jango Player

Login - add to songbook

SHARE PAGE  




You need to log in to post comments