Guitar Tabs, Chords and Lyrics
Server problems seems to be fixed. Chordie has been experiencing problems with songs disappearing. These issues now seems to be fixed, but still verifying the fix. If you find anything strange, please email admin@chordie.com.


Tears  The Chameleons

This Never Ending Now
 
 --------------------------------------------------

Standard tuning
Verse
 
 -----------------5-------------------------------------------------------|
 ---7-----7-----7---7---8------7---------3-----3---3----------------------|
 -----7-----7--------------7-----7----3------3----------3------3------3---|
 -----------------------------------5------5------5-------5-------5-------|
 -0-----0-----0-------0------0------------------------5------5------5-----|
 -------------------------------------------------------------------------|

Chorus
 
 ----0-------0-------0----2----------3---------2------------------------------|
 -------1-------1------------3----------3---------3---------------------------|
 ----------0-------0------------2----------0---------2----0------0-------0----|
 --2---------------------0---------------------0-------------2------2---------|
 -------------------------------------------------------3-------3------3------|
 -----------------------------------3-----------------------------------------|

Bridge
 
 ------------2----------------0----------|
 -----3--------3----3---1-------1---1----|
 --------2-------2--------0-------0------|
 --0-------0----------------2------------|
 ---------------------3------------------|
 ----------------------------------------|

It's just co[D]incidence
Well you can talk th[Gm]at way but I have to say [Cm]I don't believe in it[D]
It was a chill[Gm] of chance, I decided to dance[Cm] the days away[D]
And I wasn't worried at all snea[Gm]king t[Cm]hrough the back door[D]
No, I wasn't worried at all, drea[Gm]ms ar[Cm]e what you live for
[Am]Waiting for the light to turn green- car[D]ry me home[G] [D] [C]
To the kind[Am]est eyes that I've ever seen - carry m[D]e home[G] [D] [C]
Well, can[Am] you tell me how will it be now? How will [D]it be?[G] [D] [C]
[Am]Can you tell me, how will it be now? How wi[D]ll it be?[G] [D] [C]
[D] Well we were younger then a[Gm]nd the days were long a[Cm]nd slow[D]
But were we wiser then? [Gm] I couldn't say,[Cm] I wouldn't know[D]
But I wasn't worried at all, I had[Gm] some[Cm]one to run to[D]
And I wasn't worried at all, I knew [Gm]which [Cm]way the wind blew
( Tab from: http://www.guitartabs.cc/tabs/t/the_chameleons/tears_tab.html )
[Am]Kicking out the chaos and gloom- carry[D] me h[G]ome[D] [C]
And I wat[Am]ched the ceiling spin round the room- carry me home[D] [G] [D] [C]
Well, ca[Am]n you tell me how will it be now? How [D]will [G]it be?[D] [C]
[Am]Can you tell me, how will it be now? Ho[D]w wil[G]l it be[D]?[C]
Am D G D C X4
La la laa
In the [Am]real world h[G]ow[F] w[E]ill it be?[E7]
In a [Am]cold world[G] [F] [E]how will it be[E7]?
In a [Am]lonely world[G], [F] [E]how will it be[E7]?
Am G (break) E E7
Will the ghosts just stop following me?
In the [Am]real world[G] [F] [E]how will it be[E7]?
In a [Am]cold dead world[G] [F] [E]how will it be[E7]?
Beg and [Am]crawl[G] [F] [E]how will it be[E7]?
Am G (break) E
Will the ghosts just stop following me?
Now drawn in[D]to the sun[C], [D] [C] he was the [D]only one[C] [D] [C]
He cries out to [D]everyon[C]e,[D] [C] for his [D]only son[C] [D] [C]
[Am]From the window of my [D]room n[G]ow[D] [C]
[Am]I can see the color [D]blue n[G]ow[D] [C]
You [Am]can't even look in my [D]eyes n[G]ow, [D]what would you [C]see?
[Am]If you could look into my [D]eyes n[G]ow, [D]what would you [C]see?
And [C]so [G] I'll re[Am]member you[F] [G]
I'll re[C]member the days and the [G]thousands of ways you [Am]pulled me through[F] [G]
And [C]dream [G] of all the [Am]things we've seen[F] [G]
The[C] thousands of faces, the [G]thousands of the places [Am]we have been[F] [G]
Now you [C]have no phone and you [G]have no name and you [Am]have no number[F] [G]
And it [C]comes to an end in the [G]blink of an ey[Am]e[F] [G] [C]
 
 --------------------------------------------------


Important: The song above is NOT stored on the Chordie server. The original song is hosted at www.guitartabs.cc. Chordie works as a search engine and provides on-the-fly formatting. Chordie does not index songs against artists'/composers' will. To remove this song please click here.

Text color:
Chord color:
Chord grids: 
Font size:    
Page size: 

Am C Cm D E E7 F G Gm
Rate #1 of 6 versions

Jango Player

Login - add to songbook

SHARE PAGE  



You need to log in to post comments