Guitar Tabs, Chords and Lyrics
Server problems seems to be fixed. Chordie has been experiencing problems with songs disappearing. These issues now seems to be fixed, but still verifying the fix. If you find anything strange, please email admin@chordie.com.


Akeldama  The Faceless

As recorded by The Faceless
(From the 2006 Album AKELDAMA)
Transcribed by MC
Words by Derek Rydquist Music by The Faceless
Arranged by The Faceless
[D5]x 5 7 7 x x
[G5]x 10 12 12 x x
[F]x 8 x 10 x x
[Eb]x 6 x 8 x x
Gtr I (C G C F A D) - 'Michael Keene'
Gtr II (C G C F A D) - 'Steve Jones I'
Gtr III (C G C F A D) - 'Steve Jones II'
Gtr IV (C G C F A D) - 'Michael Sherer I'
Gtr V (C G C F A D) - 'Michael Sherer II'
Gtr VI (C G C F A D) - 'Michael Sherer III'
keldama
Progressive Metal Q=160
N.C.
[4/4] Gtrs I, II
Wx2
 
 |--------|
 |--------|
 |--------|
 |--------|
 |--------|
 |--------|

5/16 7/8
Gtr I
~~
S S S S S E E E E E E E E H S S S S
 
 |----------------|---------------------|-------------------------|
 |----------------|---------------------|-------------------------|
 |----------------|-11-14-12-11-9s11-11-|-11h13-------14-13-11----|
 |----------12-14-|---------------------|----------------------14-|
 |-12-14-15-------|---------------------|-------------------------|
 |----------------|---------------------|-------------------------|

|
| Gtr II
| Q S E E E E E E E E E E E E E E
 
 |----------------|---------------------|-------------------------|
 |----------------|-------------3-------|-----------5-------------|
 |----------------|--------0-------0----|-------6------6----------|
 |----------------|-----4-----4-------4-|-----7---7----------7----|
 |----------------|-/2------------------|--4----------------------|
 |----------------|---------------------|-------------------------|

~~~~~~~~~~~~~~~~~~~~~~~~
S S S S E +H H..
 
 |-----------------------------------|---------------------------|
 |-----------------------------------|---------------------------|
 |-----------------------------------|---------------------------|
 |-13-11-----------------------------|---------------------------|
 |-------14-12-11-(11)---------------|-12------------------------|
 |-----------------------------------|---------------------------|

|
 
 | |--3---| |--3---|

| E E E E S S S E E E E E E S S S E E
 
 |-----------------------------------|---------------------------|
 |-----------------------------------|---------------------------|
 |--------------8---9--8h=9p==8------|--------8-9-8h=9p==8-------|
 |--------------9---9--9-(9)-(9)-9-9-|--------9-9-9-(9)-(9)-9-9--|
 |--------9------------------------9-|------9-----------------9--|
 |--6--------------------------------|--7------------------------|

5/8
 
 |--3--| |--3--| |3-|

E S S S Q. S S S S E +Q.
 
 |-------------12--------|--------------------------|
 |----------13-----------|-13-----------------------|
 |-------14--------------|----14--------------------|
 |----14-----------------|-------14-----------------|
 |-----------------------|----------15-12-(12)------|
 |-----------------------|--------------------------|

|
| E E E E E E E E E E
 
 |-----------------------|--------------------------|
 |-----------------------|------------------7-----7-|
 |--------------------16-|------------------9-----9-|
 |-------------14-----14-|-----------------10----10-|
 |----12-----------12----|-----------9------------9-|
 |-10--------------------|--7------------------7----|

7/8
 
 |--3--| |--3--|

S S S S S E E E E E S S S S S E E E E E
 
 |--------------7--------------|-------------5-------------|
 |----------8-8---10-8-10--12--|---------6-6---8-6--8--10--|
 |------7----------------------|-----5---------------------|
 |----9------------------------|---7-----------------------|
 |-10--------------------------|-8-------------------------|
 |-----------------------------|---------------------------|

|
| E E E E E +E E E E E E E +E E
 
 |-------------------5-(5)-(5)-|-----------------3-(3)-(3)-|
 |-------------------5-(5)-(5)-|-----------------3-(3)-(3)-|
 |-----------------------------|---------------------------|
 |--------------9-----------0--|-------------7----------0--|
 |--------7--------7-----------|-------5-------5-----------|
 |--5--------------------------|-3-------------------------|

|--3--|
S S S S S S S S S S S S S S S S S S S S S S S S S S S S S
 
 |---------------------------------------|----------------------------------------------|
 |-----7-8-7---------7-----8-----7-------|---------10-12-13-12-10--------------------12-|
 |-8-9-------9--8--9---------------9-8---|-9-11-12----------------12-11--9-----12-14----|
 |-------------------------------------9-|----------------------------------12----------|
 |---------------------------------------|----------------------------------------------|
 |---------------------------------------|----------------------------------------------|

|
 
 | |---3----|

| E E E E S S S E E E E E E E +E E
 
 |---------------------------------------|----------------------------------------------|
 |---------------------------------------|-------------5-----------5----(5)-----5-------|
 |---------4----5----4--5-----4----------|-------------5-----------5----(5)-----5-------|
 |---------4---(4)---4-(4)---(4)-4---4---|-------------3-----------3----(3)-----3-------|
 |-----6-----------------------------6---|-3-----3-----------3--------------------------|
 |-4-------------------------------------|-3-----3-----------3--------------------------|
 |-----------------------------3-----------------------------|

S S S S S S S S S S S S S S S S S S S S S
 
 |----------------------12-14-15-12----------12-17-12----------12----|
 |-13-12-------12-13-15-------------15-13-15----------15-13-15-------|
 |-------12-14-------------------------------------------------------|
 |-------------------------------------------------------------------|
 |-------------------------------------------------------------------|
 |-------------------------------------------------------------------|

|
| E E E E E E E
 
 |-------------------------------------------------------------------|
 |--------------------5-----------------5--------5--------5----------|
 |--------------------5-----------------5--------5--------5----------|
 |--------------------5-----------------5--------5--------5----------|
 |--4--------4-----------------4-------------------------------------|
 |--4--------4-----------------4-------------------------------------|

~~ ~~~~
H E E E H..
 
 |-15-------------14-15-|-16---------------|
 |----------------------|------------------|
 |----------------------|------------------|
 |----------------------|------------------|
 |----------------------|------------------|
 |----------------------|------------------|

|
| E E E A E E E E E E E E E E E
 
 |----------------------|------------------|
 |----------------------|------------9-----|
 |-----------------7----|--------9-----9---|
 |------7-(7)s9-------9-|------9---9-----9-|
 |----5-----------------|------------------|
 |--5-----------5-------|--6---------------|

S E. Q Q. S S S S S S S S S S S S S S
 
 |--------------------|-----------------------------|
 |--------------------|-----------------------------|
 |--------------------|-7-6-----------7-6-----------|
 |-7h9----7---10------|-----9-7-5---------9-7-5-----|
 |--------------------|-----------9-7-----------9-7-|
 |--------------------|-----------------------------|

|
| E E E E E E E E E E E E E E
 
 |--------------------|-----------------------------|
 |-------------1------|-----------------3-----------|
 |--------0-------0---|---------4-----------4-------|
 |------2---2-------2-|-----5-------5-----------5---|
 |-0------------------|-2---------------------------|
 |--------------------|-----------------------------|

|--3---|
S E. Q S S S +Q S S S S S S S S S S S S S S
 
 |----------------------------|---------------------------------------|
 |----------------------------|---------------------------------------|
 |------------6h=7p==6--(6)---|-7-6-----------7-6---------------------|
 |-7h9----7-------------------|-----9-7-5-------------9-----7-5-------|
 |----------------------------|-----------9-7-------------------9-7---|
 |----------------------------|---------------------------------------|

|
 
 | |--3---| |---3----|

| E E E E S S S E E E E E E S S S E E
 
 |----------------------------|---------------------------------------|
 |----------------------------|---------------------------------------|
 |--------6-7-6h=7p==6--------|---------6---7---6h=7p====6------------|
 |--------7-7-7-(7)-(7)--7--7-|---------7---7---7-(7)---(7)-7---7-----|
 |------7-------------------7-|-----7---------------------------7-----|
 |-6--------------------------|-5-------------------------------------|

5/8 7/8
E E E E E E E E S S E H Q. E E E E E E E
 
 |------------10-|---------------|--------------------|---------------------|
 |---------10----|----------8-10-|--------------------|-----10s16----16--17-|
 |----7--9-------|------7-9------|-9-------7----------|-7-8-------14--------|
 |-8-------------|----8----------|--------------------|---------------------|
 |---------------|-10------------|--------------------|---------------------|
 |---------------|---------------|--------------------|---------------------|

|
| E E E E E E E E E E E E E E E +E E E E E E E E E
 
 |---------------|---------------|---------3--(3)-(3)-|------------1-(1)----|
 |---------------|------5------5-|---------3--(3)-(3)-|------------1-(1)----|
 |------------14-|------7------7-|--------------------|------3--------3-----|
 |------12----12-|------8------8-|-----7-----------0--|---------------------|
 |---10----10----|----7--------7-|---5---5------------|---3-----3---------3-|
 |-8-------------|--5-----5------|-3------------------|-1-------------------|

~~~~~
+H.. S S S S S S S S S S S S S a S
 
 |-----------------------------|----------------10-11-10-------------------------|
 |-(17)------------------------|-------------11----------11----------------------|
 |-----------------------------|----------12----------------12-------------------|
 |-----------------------------|-------12----------------------12----------------|
 |-----------------------------|-10-13-----------------------------13-10-(10)s13-|
 |-----------------------------|-------------------------------------------------|

|
| |--3---|
| E E E E S S S E E E E E E E +E E
 
 |-----------------------------|-------------------------------------------------|
 |-----------------------------|--------------3-----------3----(3)-----3---------|
 |---------2--3--2--3---2------|--------------3-----------3----(3)-----3---------|
 |---------2-(2)-2-(2)-(2)-2-2-|--------------1-----------1----(1)-----1---------|
 |-------4-------------------4-|--1-----1-----------1----------------------------|
 |---2-------------------------|--1-----1-----------1----------------------------|

S S S S S S S S S S S S S S
 
 |----------------------------------13-15-17-|
 |-------------------------13-15-17----------|
 |----------------12-14-15-------------------|
 |-------12-14-15----------------------------|
 |-13-15-------------------------------------|
 |-------------------------------------------|

|
| E E E E E E E
 
 |-------------------------------------------|
 |--------------3-----------3-----3-----3----|
 |--------------3-----------3-----3-----3----|
 |--------------3-----------3-----3-----3----|
 |--2-----2-----------2----------------------|
 |--2-----2-----------2----------------------|

~~~~~~~~~ ~~~~
S Q.. Q +E Q Q Q.
 
 |-----------------------------|------20---/24------|
 |-15s17-------------15---(15)-|-19-----------------|
 |-----------------------------|--------------------|
 |-----------------------------|--------------------|
 |-----------------------------|--------------------|
 |-----------------------------|--------------------|

|
| E E E A E E E E E E E E E E E
 
 |-----------------------------|--------------------|
 |-----------------------------|-------------7------|
 |----------------------5------|-------7--------7---|
 |-----------5-(5)s7--------7--|----7----7--------7-|
 |---------3-------------------|--------------------|
 |--3-----------------3--------|--4-----------------|

Gtr IV
A H +E q H..
 
 ||-----------------------------|---------------------------|
 ||o----------------------------|---------------------------|
 ||--5h7------------(7)--5------|---------------------------|
 ||-----------------------------|--6------------------------|
 ||o----------------------------|---------------------------|
 ||-----------------------------|---------------------------|

|
| Gtr V
| <
| H.. +H..
 
 ||-----------------------------|---------------------------|
 ||o---9------------------------|-(9)-----------------------|
 ||----8------------------------|-(8)-----------------------|
 ||----6------------------------|-(6)-----------------------|
 ||o----------------------------|---------------------------|
 ||-----------------------------|---------------------------|

|
| Gtrs I, II
| Q E E E E E Q E E E E E
 
 ||-----------------------------|---------------------------|
 ||o-----------------9----------|----------------9----------|
 ||----------8-----------8------|--------8-----------8------|
 ||----6----(6)--6--(6)-(6)--6--|--6----(6)--6--(6)-(6)--6--|
 ||o---6----(6)-(6)-(6)-(6)-(6)-|--6----(6)-(6)-(6)-(6)-(6)-|
 ||----6----(6)-(6)-(6)-(6)-(6)-|--6----(6)-(6)-(6)-(6)-(6)-|

A H +E q H..
 
 |-----------------------------|-----------------------------||
 |-----------------------------|----------------------------o||
 |-5h=7------------(7)--5------|-----------------------------||
 |-----------------------------|---7-------------------------||
 |-----------------------------|----------------------------o||
 |-----------------------------|-----------------------------||

|
| <
| H.. +H..
 
 |-----------------------------|-----------------------------||
 |---10------------------------|-(10)-----------------------o||
 |----9------------------------|--(9)------------------------||
 |----7------------------------|--(7)------------------------||
 |-----------------------------|----------------------------o||
 |-----------------------------|-----------------------------||

|
| Q E E E E E Q E E E E E
 
 |-----------------------------|-----------------------------||
 |-----------------10----------|----------------10----------o||
 |----------9-----------9------|---------9-----------9-------||
 |----7----(7)--7--(7)-(7)--7--|---7----(7)--7--(7)-(7)--7---||
 |----7----(7)-(7)-(7)-(7)-(7)-|---7----(7)-(7)-(7)-(7)-(7)-o||
 |----7----(7)-(7)-(7)-(7)-(7)-|---7----(7)-(7)-(7)-(7)-(7)--||

E E E E E E E E Q. E E E
 
 |-----------------|---------------------|
 |---------6-8-----|--6---------------6--|
 |-----5-7-------7-|------5--------7-----|
 |-6-----------6---|---------------------|
 |-----------------|---------------------|
 |-----------------|---------------------|

|
| <
| H.. +H..
 
 |-----------------|---------------------|
 |-9---------------|-(9)-----------------|
 |-8---------------|-(8)-----------------|
 |-6---------------|-(6)-----------------|
 |-----------------|---------------------|
 |-----------------|---------------------|

|
| E E E Q E E E E E Q E +E
 
 |-----------------|---------------------|
 |-----------------|---------------------|
 |-----------------|---------------------|
 |-6-----6-----6---|--6------6-----6-(6)-|
 |-6-----6-----6---|--6------6-----6-(6)-|
 |-6-----6-----6---|--6------6-----6-(6)-|

~~~~~~~~~~~
E +E E Q E E E H +E E
 
 |---------------4-5-|---7---8------(8)-----|
 |--5---(5)----------|----------------------|
 |----------7--------|----------------------|
 |-------------------|----------------------|
 |-------------------|----------------------|
 |-------------------|----------------------|

|
| <
| H.. +H..
 
 |-------------------|----------------------|
 |-10----------------|-(10)-----------------|
 |--9----------------|--(9)-----------------|
 |--7----------------|--(7)-----------------|
 |-------------------|----------------------|
 |-------------------|----------------------|

|
| E E E Q E E E E E Q E +E
 
 |-------------------|----------------------|
 |-------------------|----------------------|
 |-------------------|----------------------|
 |--7-------7----7---|---7-----7-----7--(7)-|
 |--7-------7----7---|---7-----7-----7--(7)-|
 |--7-------7----7---|---7-----7-----7--(7)-|

[E] [E] [E] [E] [E] [E] [E] [E] [E] [E] [E] [E] [E] [E]  
 
 |------7-8-10-11-10-8-|--7---8-10-11-10-11-13--|
 |-(9)-----------------|------------------------|
 |---------------------|------------------------|
 |---------------------|------------------------|
 |---------------------|------------------------|
 |---------------------|------------------------|

|
| <
| H.. +H..
 
 |---------------------|------------------------|
 |--9------------------|-(9)--------------------|
 |--8------------------|-(8)--------------------|
 |--6------------------|-(6)--------------------|
 |---------------------|------------------------|
 |---------------------|------------------------|

|
| E E E Q E E E E E Q E +E
 
 |---------------------|------------------------|
 |---------------------|------------------------|
 |---------------------|------------------------|
 |--6-----6--------6---|--6------6--------6-(6)-|
 |--6-----6--------6---|--6------6--------6-(6)-|
 |--6-----6--------6---|--6------6--------6-(6)-|

>
~~~~ ~~~~~
H. E H. +E
 
 |-12--------------|---------------------|
 |-----------------|--12------------(12)-|
 |-----------------|---------------------|
 |-----------------|---------------------|
 |-----------------|---------------------|
 |-----------------|---------------------|

|
| <
| H.. +H..
 
 |-----------------|---------------------|
 |-10--------------|-(10)----------------|
 |--9--------------|--(9)----------------|
 |--7--------------|--(7)----------------|
 |-----------------|---------------------|
 |-----------------|---------------------|

|
| E E E Q E E E E E Q E +E
 
 |-----------------|---------------------|
 |-----------------|---------------------|
 |-----------------|---------------------|
 |--7-----7----7---|---7-----7----7--(7)-|
 |--7-----7----7---|---7-----7----7--(7)-|
 |--7-----7----7---|---7-----7----7--(7)-|

12/8
~~~~
E E E E E E E E E E +Q E E E E E E E E E E E E
 
 |----------------12-14-15-14-11-(11)----|-----18-14----------------14----------|
 |-------------12------------------------|-----------15----------15----15-15-16-|
 |----------12---------------------------|--------------15----15----------------|
 |-------13------------------------------|-----------------16-------------------|
 |----15---------------------------------|--------------------------------------|
 |---------------------------------------|--------------------------------------|

|
| Gtrs I, II
| PM| PM PM| PM PM--| PM PM| PM
| E E E E E E E E E E E E S S E E E E E E E E E E E
 
 |---------------------------------------|--------------------------------------|
 |---------------------------------------|---------7-----7--------7-----7--7--7-|
 |-------11----11-------11----11--11--11-|---------5-----5--------5-----5--5--5-|
 |--------9-----9--------9-----9---9---9-|---------4-----4--------4-----4--4--4-|
 |-10-10-10-10-10-10-10-10-10-10--10--10-|-6-6--6--6--6--6--6--6--6--6--6--6--6-|
 |-10-10-10-10-10-10-10-10-10-10--10--10-|--------------------------------------|

7/8
Gtr IV
Q H E +Q E +H
 
 |-10-------------------|---------------------------|
 |--------11------------|---------------------------|
 |-------------------11-|-(11)----------------------|
 |----------------------|---------12---(12)---------|
 |----------------------|---------------------------|
 |----------------------|---------------------------|

|
| Gtr V
| <
| H.. +H..
 
 |----------------------|---------------------------|
 |--9-------------------|--(9)----------------------|
 |--8-------------------|--(8)----------------------|
 |--6-------------------|--(6)----------------------|
 |----------------------|---------------------------|
 |----------------------|---------------------------|

|
| Gtrs I, II
 
 | PM-----------------------------------------------

| E E S E E E S E E E S E E E S E
 
 |----------------------|---------------------------|
 |----------------------|---------------------------|
 |----------------------|---------------------------|
 |----------------------|---------------------------|
 |--6---6--6-6-6-6-6--6-|---6---6--6-6------6-6-6-6-|
 |--6---6--6-6-6-6-6--6-|---6---6--6-6------6-6-6-6-|

Q. H E E E E Q.
 
 |-12--------------------|-----------------------------|
 |------------13---------|--10---12-13---9s==10--------|
 |-----------------------|-----------------------------|
 |-----------------------|-----------------------------|
 |-----------------------|-----------------------------|
 |-----------------------|-----------------------------|

|
| <
| H.. +H..
 
 |-----------------------|-----------------------------|
 |-10--------------------|-(10)------------------------|
 |--9--------------------|--(9)------------------------|
 |--7--------------------|--(7)------------------------|
 |-----------------------|-----------------------------|
 |-----------------------|-----------------------------|

|
 
 |---------------------------------------------------|

| E E S E E E S E E E S E E E S E
 
 |-----------------------|-----------------------------|
 |-----------------------|-----------------------------|
 |-----------------------|-----------------------------|
 |-----------------------|-----------------------------|
 |--7---7-7-7----7-7-7-7-|---7----7--7-7---7-----7-7-7-|
 |--7---7-7-7----7-7-7-7-|---7----7--7-7---7-----7-7-7-|

~~
E E E Q E E E E E E E E E
 
 |------11---------------------|-------------------------------|
 |-12------12------------------|-------------------------------|
 |--------------12-------------|-12----------------------------|
 |---------------------13---10-|---------9---10---12---13---12-|
 |-----------------------------|------10-----------------------|
 |-----------------------------|-------------------------------|

|
| <
| H.. +H..
 
 |-----------------------------|-------------------------------|
 |--9--------------------------|-(9)---------------------------|
 |--8--------------------------|-(8)---------------------------|
 |--6--------------------------|-(6)---------------------------|
 |-----------------------------|-------------------------------|
 |-----------------------------|-------------------------------|

|
 
 | PM----------------------------------------------------------

| E E S E E E S E E E S E E E S E
 
 |-----------------------------|-------------------------------|
 |-----------------------------|-------------------------------|
 |-----------------------------|-------------------------------|
 |-----------------------------|-------------------------------|
 |--6----6--6-6----6-6----6--6-|--6----6-6-6----6----6----6--6-|
 |--6----6--6-6----6-6----6--6-|--6----6-6-6----6----6----6--6-|

~~~~
E E E E E E E H. +E
 
 |-------------------------------|------------------------|
 |-------------------------------|------------------------|
 |-----------------------10------|-13---------------(13)\-|
 |-10---9-10---12---13--------10-|------------------------|
 |-------------------------------|------------------------|
 |-------------------------------|------------------------|

|
| +H.. +H..
 
 |-------------------------------|------------------------|
 |-(9)---------------------------|-(9)--------------------|
 |-(8)---------------------------|-(8)--------------------|
 |-(6)---------------------------|-(6)--------------------|
 |-------------------------------|------------------------|
 |-------------------------------|------------------------|

|
 
 |--------------------------------------------------|

| E E S E E E S E E E S E E E S E
 
 |-------------------------------|------------------------|
 |-------------------------------|------------------------|
 |-------------------------------|------------------------|
 |-------------------------------|------------------------|
 |--6---6--6-6----6----6----6--6-|--6---6-6-6-6-6-6---6---|
 |--6---6--6-6----6----6----6--6-|--6---6-6-6-6-6-6---6---|

Gtrs I, II
[E] [E] [E] [E] [E] [E] [E] [E] [E] [E] [E] [E] [E] [E]  
 
 |----------------|---------------|
 |----------3-----|---------5-----|
 |------0-----0---|-----6-----6---|
 |----4---4-----4-|---7---7-----7-|
 |-/2-------------|-4-------------|
 |----------------|---------------|
 |--3---| |--3---|

E E E E S S S E E E E E E S S S E E
 
 |-----------------------|------------------------|
 |-----------------------|------------------------|
 |-----8-9-8h=9p==8------|-----8-9-8h=9p==8-------|
 |-----9-9-9-(9)-(9)-9-9-|-----9-9-9-(9)-(9)-9-9--|
 |---9-----------------9-|---9-----------------9--|
 |-6---------------------|-7----------------------|

5/8 7/8
[E] [E] [E] [E] [E] [E] [E] [E] [E] [E] [E] [E] [E] [E] [E] [+E] [E] [E] [E] [E] [E] [E] [+E] [E]  
 
 |----------------|-------------|---------5-(5)-(5)-|---------3-(3)-(3)--|
 |----------------|------7----7-|---------5-(5)-(5)-|---------3-(3)-(3)--|
 |-------------16-|------9----9-|-------------------|--------------------|
 |-------14----14-|-----10---10-|-----9----------0--|-----7----------0---|
 |----12----12----|---9-------9-|---7---7-----------|---5---5------------|
 |-10-------------|-7------7----|-5-----------------|-3------------------|

|--3---|
E E E E S S S E E E E E E E +E E
 
 |-------------------------|-----------------|
 |-------------------------|-----5---5-(5)-5-|
 |-----4--5--4--5---4------|-----5---5-(5)-5-|
 |-----4-(4)-4-(4)-(4)-4-4-|-----3---3-(3)-3-|
 |---6-------------------6-|-3-3---3---------|
 |-4-----------------------|-3-3---3---------|

[E] [E] [E] [E] [E] [E] [E] [E] [E] [E] [A] [E] [E] [E] [E] [E] [E] [E] [E] [E] [E] [E]  
 
 |---------------|-------------------|----------------|
 |-----5---5-5-5-|-------------------|---------9------|
 |-----5---5-5-5-|---------------7---|-----9-----9----|
 |-----5---5-5-5-|-----7-(7)s9-----9-|---9---9-----9--|
 |-4-4---4-------|---5---------------|----------------|
 |-4-4---4-------|-5-----------5-----|-6--------------|

[E] [E] [E] [E] [E] [E] [E] [E] [E] [E] [E] [E] [E] [E]  
 
 |---------------|---------------|
 |---------1-----|---------3-----|
 |-----0-----0---|-----4-----4---|
 |---2---2-----2-|---5---5-----5-|
 |-0-------------|-2-------------|
 |---------------|---------------|
 |--3---| |--3---|

E E E E S S S E E E E E E S S S E E
 
 |-----------------------|------------------------|
 |-----------------------|------------------------|
 |-----6-7-6h=7p==6------|-----6-7-6h=7p==6-------|
 |-----7-7-7-(7)-(7)-7-7-|-----7-7-7-(7)-(7)-7-7--|
 |---7-----------------7-|---7-----------------7--|
 |-6---------------------|-5----------------------|

5/8 7/8
[E] [E] [E] [E] [E] [E] [E] [E] [E] [E] [E] [E] [E] [E] [E] [+E] [E] [E] [E] [E] [E] [E] [E] [E]  
 
 |---------------|-----------|---------3-(3)-(3)-|---------1-(1)----|
 |---------------|-----5---5-|---------3-(3)-(3)-|---------1-(1)----|
 |------------14-|-----7---7-|-------------------|-----3------3-----|
 |------12----12-|-----8---8-|-----7----------0--|------------------|
 |---10----10----|---7-----7-|---5---5-----------|---3---3-------3--|
 |-8-------------|-5-----5---|-3-----------------|-1----------------|

|--3---|
E E E E S S S E E E E E E E +E E
 
 |-------------------------|-----------------|
 |-------------------------|-----3---3-(3)-3-|
 |-----2--3--2--3---2------|-----3---3-(3)-3-|
 |-----2-(2)-2-(2)-(2)-2-2-|-----1---1-(1)-1-|
 |---4-------------------4-|-1-1---1---------|
 |-2-----------------------|-1-1---1---------|

[E] [E] [E] [E] [E] [E] [E] [E] [E] [E] [A] [E] [E] [E] [E] [E] [E] [E] [E] [E] [E] [E]  
 
 |---------------|-------------------|----------------|
 |-----3---3-3-3-|-------------------|---------7------|
 |-----3---3-3-3-|---------------5---|-----7-----7----|
 |-----3---3-3-3-|-----5-(5)s7-----7-|---7---7-----7--|
 |-2-2---2-------|---3---------------|----------------|
 |-2-2---2-------|-3-----------3-----|-4--------------|

7/8
H.. H.. H.. H..
 
 |-----------|-----------|-----------|--------|
 |-----------|-----------|-----------|--------|
 |-----------|-----------|-----------|--------|
 |-----------|-----------|-----------|--------|
 |-----------|-----------|-----------|--------|
 |-----------|-----------|-----------|--------|
 PM------------------------------------------------------------------|

E E S E E E S E E E S E E E S E E E S E E E S E E E S E E E S E 4x
 
 ||------------------|-----------------|-----------------|------------------||
 ||o-----------------|-----------------|-----------------|-----------------o||
 ||------------------|-----------------|-----------------|------------------||
 ||------------------|-----------------|-----------------|------------------||
 ||o-6-6-6-6-6-6-6-6-|-6-6-6-6-6-6-6-6-|-7-7-7-7-7-7-7-7-|-7-7-7-7-7-7-7-7-o||
 ||--6-6-6-6-6-6-6-6-|-6-6-6-6-6-6-6-6-|-7-7-7-7-7-7-7-7-|-7-7-7-7-7-7-7-7--||

12/8
PM| PM PM| PM PM--| PM PM| PM
E E E E E E E E E E E E S S E E E E E E E E E E E
 
 |-------------------------------------|---------------------------|
 |-------------------------------------|-------7---7-----7---7-7-7-|
 |-------11----11-------11----11-11-11-|-------5---5-----5---5-5-5-|
 |--------9-----9--------9-----9--9--9-|-------4---4-----4---4-4-4-|
 |-10-10-10-10-10-10-10-10-10-10-10-10-|-6-6-6-6-6-6-6-6-6-6-6-6-6-|
 |-10-10-10-10-10-10-10-10-10-10-10-10-|---------------------------|

7/8
 
 PM------------------------------------------------------------------|

E E S E E E S E E E S E E E S E E E S E E E S E E E S E E E S E
 
 |-----------------|-----------------|-----------------|-----------------|
 |-----------------|-----------------|-----------------|-----------------|
 |-----------------|-----------------|-----------------|-----------------|
 |-----------------|-----------------|-----------------|-----------------|
 |-6-6-6-6-6-6-6-6-|-6-6-6-6-6-6-6-6-|-7-7-7-7-7-7-7-7-|-7-7-7-7-7-7-7-7-|
 |-6-6-6-6-6-6-6-6-|-6-6-6-6-6-6-6-6-|-7-7-7-7-7-7-7-7-|-7-7-7-7-7-7-7-7-|
 PM------------------------------------------------------------------|

E E S E E E S E E E S E E E S E E E S E E E S E E E S E E E S E
 
 |-----------------|-----------------|-----------------|------------------|
 |-----------------|-----------------|-----------------|------------------|
 |-----------------|-----------------|-----------------|------------------|
 |-----------------|-----------------|-----------------|------------------|
 |-6-6-6-6-6-6-6-6-|-6-6-6-6-6-6-6-6-|-6-6-6-6-6-6-6-6-|-6-6-6-6-6-6-6-6--|
 |-6-6-6-6-6-6-6-6-|-6-6-6-6-6-6-6-6-|-6-6-6-6-6-6-6-6-|-6-6-6-6-6-6-6-6--|

Slightly Slower Q=150
7/8
Gtr III
H.. H.. H Q. E E E +E S S E E
 
 |------------|------------|-----------|------------------------------|
 |-^3---------|-^5---------|-----------|------------------------------|
 |-^0---------|-^6---------|------8----|----------------8---9---8-----|
 |-^4---------|-^7---------|------9----|--------9--(9)--9--(9)-(9)-9--|
 |-^2---------|-^4---------|------9----|----9--(9)-(9)-(9)-(9)-(9)----|
 |------------|------------|-6---------|-6-(6)-(6)-(6)-(6)-(6)-(6)----|

5/8 7/8
[E] [E] [E] [E] [E] [E] [E] [E] [E] [E] [E] [E] [E] [E] [E] [+E] [E] [E] [E] [E] [E] [E] [+E] [E]  
 
 |----------------|-------------|---------5-(5)-(5)-|---------3-(3)-(3)--|
 |----------------|-----------7-|---------5-(5)-(5)-|---------3-(3)-(3)--|
 |-------------16-|-----------9-|-------------------|--------------------|
 |-------14----14-|-----10---10-|-----9----------0--|-----7----------0---|
 |----12----12----|---9----9----|---7---7-----------|---5---5------------|
 |-10-------------|-7-----------|-5-----------------|-3------------------|

E E E E E E E H Q. H Q. Q E E E E E Q E E Q E
 
 |-----------------|-----------|-----------|--------------|--------------------|
 |-----------------|------5----|------5----|--------------|-----------9---(9)--|
 |---------4h5p=4--|------5----|------5----|----------7---|-------9---9---(9)--|
 |-----4-------(4)-|------3----|------5----|------7s9---9-|----9-(9)-(9)--(9)--|
 |---6---6---------|-3---------|-4---------|----5---------|--------------------|
 |-4---------------|-3---------|-4---------|-5------------|-6------------------|

Slightly Faster Q=160
Gtrs I, II
[E] [E] [E] [E] [E] [E] [E] [E] [E] [E] [E] [E] [E] [E]  
 
 |---------------|---------------|
 |---------1-----|---------3-----|
 |-----0-----0---|-----4-----4---|
 |---2---2-----2-|---5---5-----5-|
 |-0-------------|-2-------------|
 |---------------|---------------|
 |--3---| |--3---|

E E E E S S S E E E E E E S S S E E
 
 |-----------------------|------------------------|
 |-----------------------|------------------------|
 |-----6-7-6h=7p==6------|-----6-7-6h=7p==6-------|
 |-----7-7-7-(7)-(7)-7-7-|-----7-7-7-(7)-(7)-7-7--|
 |---7-----------------7-|---7-----------------7--|
 |-6---------------------|-5----------------------|

5/8 7/8
[E] [E] [E] [E] [E] [E] [E] [E] [E] [E] [E] [E] [E] [E] [E] [+E] [E] [E] [E] [E] [E] [E] [E] [E]  
 
 |---------------|-----------|---------3-(3)-(3)-|---------1-(1)----|
 |---------------|-----5---5-|---------3-(3)-(3)-|---------1-(1)----|
 |------------14-|-----7---7-|-------------------|-----3------3-----|
 |------12----12-|-----8---8-|-----7----------0--|------------------|
 |---10----10----|---7-----7-|---5---5-----------|---3---3-------3--|
 |-8-------------|-5-----5---|-3-----------------|-1----------------|

|--3---|
E E E E S S S E E E E E E E +E E
 
 |-------------------------|-----------------|
 |-------------------------|-----3---3-(3)-3-|
 |-----2--3--2--3---2------|-----3---3-(3)-3-|
 |-----2-(2)-2-(2)-(2)-2-2-|-----1---1-(1)-1-|
 |---4-------------------4-|-1-1---1---------|
 |-2-----------------------|-1-1---1---------|

[E] [E] [E] [E] [E] [E] [E] [E] [E] [E] [A] [E] [E] [E] [E] [E] [E] [E] [E] [E] [E] [E]  
 
 |---------------|-------------------|----------------|
 |-----3---3-3-3-|-------------------|---------7------|
 |-----3---3-3-3-|---------------5---|-----7-----7----|
 |-----3---3-3-3-|-----5-(5)s7-----7-|---7---7-----7--|
 |-2-2---2-------|---3---------------|----------------|
 |-2-2---2-------|-3-----------3-----|-4--------------|

Gtrs I, II
 
 PM--------| PM--------|

[E] [E] [E] [E] [E] [E] [E] [E] [E] [E] [E] [E] [E] [E]  
 
 |------------------------|------------------------|
 |------------------------|------------------------|
 |----------------0-------|----------------0-------|
 |----------3--------3----|----------3--------3----|
 |-------7-----7--------7-|-------7-----7--------7-|
 |--0---------------------|--0---------------------|

|
| Gtr V
| H.. +H..
 
 |------------------------|------------------------|
 |------------------------|------------------------|
 |--7---------------------|-(7)--------------------|
 |--7---------------------|-(7)--------------------|
 |--5---------------------|-(5)--------------------|
 |------------------------|------------------------|

|
| Gtr VI
| E E E E E E E E E E E E E E
 
 |------12-13-12-15-13-12-|------12-13-12-15-13-12-|
 |------------------------|------------------------|
 |-------9-10--9-12-10--9-|-------9-10--9-12-10--9-|
 |-12---------------------|-12---------------------|
 |------------------------|------------------------|
 |-12---------------------|-12---------------------|
 PM--------| PM--------|

[E] [E] [E] [E] [E] [E] [E] [E] [E] [E] [E] [E] [E] [E]  
 
 |------------------------|-------------------------|
 |------------------------|-------------------------|
 |----------------0-------|-----------------0-------|
 |----------3--------3----|-----------3--------3----|
 |-------7-----7--------7-|--------7-----7--------7-|
 |--5---------------------|---5---------------------|

|
| H.. +H..
 
 |------------------------|-------------------------|
 |------------------------|-------------------------|
 |-12---------------------|-(12)--------------------|
 |-12---------------------|-(12)--------------------|
 |-10---------------------|-(10)--------------------|
 |------------------------|-------------------------|

|
| E E E E E E E E E E E E E E
 
 |------12-13-12-15-13-12-|-------12-13-12-15-13-12-|
 |------------------------|-------------------------|
 |-12----9-10--9-12-10--9-|--12----9-10--9-12-10--9-|
 |------------------------|-------------------------|
 |-10---------------------|--10---------------------|
 |------------------------|-------------------------|
 PM--------| PM--------|

[E] [E] [E] [E] [E] [E] [E] [E] [E] [E] [E] [E] [E] [E]  
 
 |------------------------|-------------------------|
 |------------------------|-------------------------|
 |----------------0-------|-----------------0-------|
 |----------3--------3----|-----------3--------3----|
 |-------7-----7--------7-|--------7-----7--------7-|
 |--3---------------------|---3---------------------|

|
| H.. +H..
 
 |------------------------|-------------------------|
 |------------------------|-------------------------|
 |-10---------------------|-(10)--------------------|
 |------------------------|-------------------------|
 |--8---------------------|--(8)--------------------|
 |------------------------|-------------------------|

|
| E E E E E E E E E E E E E E
 
 |------12-13-12-15-13-12-|-------12-13-12-15-13-12-|
 |------------------------|-------------------------|
 |-------9-10--9-12-10--9-|--------9-10--9-12-10--9-|
 |-15---------------------|--15---------------------|
 |------------------------|-------------------------|
 |-15---------------------|--15---------------------|
 PM--------| PM--------|

[E] [E] [E] [E] [E] [E] [E] [E] [E] [E] [E] [E] [E] [E]  
 
 |------------------------|------------------------|
 |------------------------|------------------------|
 |----------------0-------|----------------0-------|
 |----------1--------1----|----------1--------1----|
 |-------5-----5--------5-|-------5-----5--------5-|
 |--1---------------------|--1---------------------|

|
| H.. +H..
 
 |------------------------|------------------------|
 |------------------------|------------------------|
 |--8---------------------|-(8)--------------------|
 |------------------------|------------------------|
 |--6---------------------|-(6)--------------------|
 |------------------------|------------------------|

|
| E E E E E E E E E E E E E E
 
 |------10-11-11-15-11-10-|------10-11-11-15-11-10-|
 |------------------------|------------------------|
 |-------7--8--7-12--8--7-|-------7--8--7-12--8--7-|
 |-13---------------------|-13---------------------|
 |------------------------|------------------------|
 |-13---------------------|-13---------------------|

( Tab from: http://www.guitartabs.cc/tabs/t/the_faceless/akeldama_tab.html )
 
 PM--------| PM--------|

[E] [E] [E] [E] [E] [E] [E] [E] [E] [E] [E] [E] [E] [E]  
 
 |------------------------|------------------------|
 |------------------------|------------------------|
 |----------------0-------|----------------5-------|
 |----------3--------3----|----------3--------3----|
 |-------7-----7--------7-|-------7-----7--------7-|
 |--0---------------------|--0---------------------|

|
| H.. +H..
 
 |------------------------|------------------------|
 |------------------------|------------------------|
 |--7---------------------|-(7)--------------------|
 |--7---------------------|-(7)--------------------|
 |--5---------------------|-(5)--------------------|
 |------------------------|------------------------|

|
| E E E E E E E E E E E E E E
 
 |------12-13-12-15-13-12-|------12-13-12-20-13-12-|
 |------------------------|------------------------|
 |-------9-10--9-12-10--9-|-------9-10--9-17-10--9-|
 |-12---------------------|-12---------------------|
 |------------------------|------------------------|
 |-12---------------------|-12---------------------|
 PM--------| PM--------|

[E] [E] [E] [E] [E] [E] [E] [E] [E] [E] [E] [E] [E] [E]  
 
 |------------------------|-------------------------|
 |------------------------|-------------------------|
 |----------------0-------|-----------------3-------|
 |----------3--------3----|-----------3--------3----|
 |-------7-----7--------7-|--------7-----7--------7-|
 |--5---------------------|---5---------------------|

|
| H.. +H..
 
 |------------------------|-------------------------|
 |------------------------|-------------------------|
 |-12---------------------|-(12)--------------------|
 |-12---------------------|-(12)--------------------|
 |-10---------------------|-(10)--------------------|
 |------------------------|-------------------------|

|
| E E E E E E E E E E E E E E
 
 |------12-13-12-15-13-12-|-------12-13-12-18-13-12-|
 |------------------------|-------------------------|
 |-12----9-10--9-12-10--9-|--12----9-10--9-15-10--9-|
 |------------------------|-------------------------|
 |-10---------------------|--10---------------------|
 |------------------------|-------------------------|
 PM--------| PM--------|

[E] [E] [E] [E] [E] [E] [E] [E] [E] [E] [E] [E] [E] [E]  
 
 |------------------------|-------------------------|
 |------------------------|-------------------------|
 |----------------0-------|-----------------0-------|
 |----------3--------3----|-----------3--------3----|
 |-------7-----7--------7-|--------7-----7--------7-|
 |--3---------------------|---3---------------------|

|
| H.. +H..
 
 |------------------------|-------------------------|
 |------------------------|-------------------------|
 |-10---------------------|-(10)--------------------|
 |------------------------|-------------------------|
 |--8---------------------|--(8)--------------------|
 |------------------------|-------------------------|

|
| E E E E E E E E E E E E E E
 
 |------12-13-12-15-13-12-|-------12-13-12-15-13-12-|
 |------------------------|-------------------------|
 |-------9-10--9-12-10--9-|--------9-10--9-12-10--9-|
 |-15---------------------|--15---------------------|
 |------------------------|-------------------------|
 |-15---------------------|--15---------------------|
 PM--------| PM--------|

[E] [E] [E] [E] [E] [E] [E] [E] [E] [E] [E] [E] [E] [E]  
 
 |------------------------|------------------------|
 |------------------------|------------------------|
 |----------------0-------|----------------0-------|
 |----------1--------1----|----------1--------1----|
 |-------5-----5--------5-|-------5-----5--------5-|
 |--1---------------------|--1---------------------|

|
| H.. +H..
 
 |------------------------|------------------------|
 |------------------------|------------------------|
 |--8---------------------|-(8)--------------------|
 |------------------------|------------------------|
 |--6---------------------|-(6)--------------------|
 |------------------------|------------------------|

|
| E E E E E E E E E E E E E E
 
 |------10-11-11-15-11-10-|------10-11-11-15-11-10-|
 |------------------------|------------------------|
 |-------7--8--7-12--8--7-|-------7--8--7-12--8--7-|
 |-13---------------------|-13---------------------|
 |------------------------|------------------------|
 |-13---------------------|-13---------------------|
 PM--| PM PM----------| PM PM----

[E] [E] [E] [E] [E] [E] [E] [E] [E] [E] [E] [E] [E] [E]  
 
 ||-----------------------|------------------------|
 ||o----------------------|------------------------|
 ||-----------------------|------------------------|
 ||----------7----7-------|----------3-----3-------|
 ||o-------4----4----4----|-------0-----0-----0----|
 ||---4-----------------4-|--0-------------------0-|

|
| H.. H..
 
 ||-----------------------|------------------------|
 ||o----------------------|------------------------|
 ||-----------------------|------------------------|
 ||--16-------------------|-12---------------------|
 ||o----------------------|------------------------|
 ||--16-------------------|-12---------------------|

|
| E E E E E E E E E E E E E E
 
 ||----------9----9-10-12-|------------------------|
 ||o------10--------------|---------10----10-12-13-|
 ||--11--------11---------|------10----------------|
 ||-----------------------|-12---------12----------|
 ||o----------------------|------------------------|
 ||-----------------------|------------------------|
 ------| PM PM----------| PM PM|

[E] [E] [E] [E] [E] [E] [E] [E] [E] [E] [E] [E] [E] [E]  
 
 |-----------------------|---------------------||
 |-----------------------|--------------------o||
 |-----------------------|---------------------||
 |--------10----10-------|---------9----9------||
 |------7-----7-----7----|------6----6----6---o||
 |--7------------------7-|--6---------------6--||

|
| H.. H..
 
 |-----------------------|---------------------||
 |-----------------------|--------------------o||
 |-----------------------|---------------------||
 |-19--------------------|-18------------------||

Important: The song above is NOT stored on the Chordie server. The original song is hosted at www.guitartabs.cc. Chordie works as a search engine and provides on-the-fly formatting. Chordie does not index songs against artists'/composers' will. To remove this song please click here.

Text color:
Chord color:
Chord grids: 
Font size:    
Page size: 

A D5 E Eb F G5
Rate #1 of 4 versions

Jango Player

Login - add to songbook

SHARE PAGE  



You need to log in to post comments