Guitar Tabs, Chords and Lyrics
Server problems seems to be fixed. Chordie has been experiencing problems with songs disappearing. These issues now seems to be fixed, but still verifying the fix. If you find anything strange, please email admin@chordie.com.


An Autopsy  The Faceless

As recorded by The Faceless
(From the 2006 Album AKELDAMA)
Transcribed by MC
Words by Derek Rydquist Music by The Faceless
Arranged by The Faceless
Gtr I (C G C F A D) - 'Michael Keene I'
Gtr II (C G C F A D) - 'Steve Jones I'
Gtr III (G C G C F A D) - 'Steve Jones II'
Gtr IV (C G C F A D) - 'Michael Keene II'
n Autopsy
Technical Death Metal Q=230
N.C.
[4/4] Gtrs I, II
Wx2
 
 |--------|
 |--------|
 |--------|
 |--------|
 |--------|
 |--------|

TP TP TP TP TP TP TP TP
 
 |-3-| |-3-| |-3-| |-3-|

Q. Q. Q. Q. Q. Q. Q. Q.
 
 ||------------------|-----------------|
 ||o-----------------|-----------------|
 ||------------------|-----------------|
 ||------------------|-----------------|
 ||o---------5---4---|-1---0-----------|
 ||--0---3-----------|---------5---3---|

TP TP TP TP TP TP TP TP[D5]
 
 |-3-| |-3-| |-3-| |-3-|

Q. Q. Q. Q. Q. Q. Q. Q. Q H.
 
 |-----------------|------------------||----------|
 |-----------------|-----------------o||----------|
 |-----------------|------------------||----------|
 |-----------------|------------------||----------|
 |---------4---1---|-0---------------o||-0--------|
 |-2---5-----------|-----5---3---2----||-0--------|

N.C.
Gtr I
TP TP TP TP TP TP TP TP TP TP TP TP TP TP TP TP
 
 |-3-| |-3-| |-3-| |-3-| |-3-| |-3-| |-3-| |-3-|

Q. Q. Q. Q. Q. Q. Q. Q. Q. Q. Q. Q. Q. Q. Q. Q.
 
 ||------------------|-----------------|-----------------|------------------||
 ||o-----------------|-----------------|-----------------|-----------------o||
 ||------------------|-----------------|-----------------|------------------||
 ||------------------|-----------------|-----------------|------------------||
 ||o---------5---4---|-1---0-----------|---------4---1---|-0---------------o||
 ||--0---3-----------|---------5---3---|-2---5-----------|-----5---3---2----||

|
| Gtr II
| TP TP TP TP TP TP TP TP TP TP TP TP TP TP TP TP
 
 | |-3-| |-3-| |-3-| |-3-| |-3-| |-3-| |-3-| |-3-|

| Q. Q. Q. Q. Q. Q. Q. Q. Q. Q. Q. Q. Q. Q. Q. Q.
 
 ||------------------|-----------------|-----------------|------------------||
 ||o-----------------|-----------------|-----------------|-----------------o||
 ||------------------|-----------------|-----------------|------------------||
 ||------------------|-----------------|-----------------|------------------||
 ||o-----0---8---7---|-5---4-----------|---------7---5---|-4---------------o||
 ||--3---------------|---------8---7---|-5---8-----------|-----8---7---5----||

7/8 5/8 7/8 5/8
[E] [E] [E] [E] [E] [E] [E] [E] [E] [E] [E] [E] [E] [E] [E] [E] [E] [E] [E] [E] [E] [E] [E] [E]  
 
 |---------------|-----------|---------------|-----------|
 |---------------|-----------|---------------|-----------|
 |---------------|-----------|-------2-3-4-5-|-----------|
 |-------5-6-7-8-|-------2-3-|-2-3-4---------|-------4-5-|
 |-5-6-7---------|-2-3-4-----|---------------|-4-5-6-----|
 |---------------|-----------|---------------|-----------|

|
| E E E E E E E E E E E E E E E E E E E E E E E E
 
 |---------------|-----------|---------------|-----------|
 |---------------|-----------|-------3-4-5-6-|-----------|
 |-------5-6-7-8-|-------2-3-|-2-3-4---------|-------4-5-|
 |-5-6-7---------|-2-3-4-----|---------------|-4-5-6-----|
 |---------------|-----------|---------------|-----------|
 |---------------|-----------|---------------|-----------|

Slightly Slower Q=225
6[G#5]/8 [A5] [G#5] [A5] 3/8[Bb5]
[E] [E] [E] [E] [E] [E] [E] [E] [E] [E] [E] [E] [E] [E] [E]  
 
 ||---------------|--------------|----------||
 ||o--------------|--------------|---------o||
 ||---------------|--------------|----------||
 ||------9---10---|-----9---10---|-11-------||
 ||o---8--------9-|---8--------9-|----10---o||
 ||--6-----7------|-6-----7------|-------8--||

|
| E Q E Q E Q E Q Q E
 
 ||---------------|--------------|----------||
 ||o--------------|--------------|---------o||
 ||---------------|--------------|----------||
 ||---------------|--------------|----------||
 ||o-6-----7------|-6-----7------|-------8-o||
 ||--6-----7------|-6-----7------|-------8--||

N.C.
6/8 3/8
[E] [E] [E] [E] [E] [E] [E] [E] [E] [E] [E] [E] [E] [E] [E]  
 
 ||-------------------|------------------|-----------||
 ||o------------------|------------------|----------o||
 ||-------------------|------------------|-----------||
 ||--------9----10----|-------9----10----|-11--------||
 ||o----8-----------9-|----8-----------9-|----10----o||
 ||--6--------7-------|-6--------7-------|--------8--||

|
| E E E E E E E E E E E E E E E
 
 ||-------------------|------------------|-----------||
 ||o------------------|------------------|----------o||
 ||-------------------|------------------|-----------||
 ||-------12----13----|------12----13----|-14--------||
 ||o---11----------12-|---11----------12-|----13----o||
 ||--9-------10-------|-9-------10-------|-------11--||

6/8 9/8
[E] [E] [E] [E] [E] [A] [E] [E] [E] [E] [E] [E] [A] [E] [A] [E] [E] [E]  
 
 |---------2-(2)s5-|-----------5-(5)s=8--(8)s5-----|
 |-----------------|---------------------------4---|
 |-----2-5---------|------5--8-------------------5-|
 |-----------------|-------------------------------|
 |-3-6-------------|-6--9--------------------------|
 |-----------------|-------------------------------|

|
| E E E E E A E E E E E E A E A E E E
 
 |---------5-(5)s8-|-----------8-(8)s11-(11)s8-----|
 |-----------------|---------------------------7---|
 |-----5-8---------|------8-11-------------------8-|
 |-----------------|-------------------------------|
 |-6-9-------------|-9-12--------------------------|
 |-----------------|-------------------------------|

6/8 3/8
[E] [E] [E] [E] [E] [E] [E] [E] [E] [E] [E] [E] [E] [E] [E]  
 
 |------------------|------------------|----------|
 |------------------|------------------|----------|
 |------------------|------------------|----------|
 |-------9----10----|-------9----10----|-11-------|
 |----8-----------9-|----8-----------9-|----10----|
 |-6--------7-------|-6--------7-------|--------8-|

|
| E E E E E E E E E E E E E E E
 
 |------------------|------------------|----------|
 |------------------|------------------|----------|
 |------------------|------------------|----------|
 |------12----13----|------12----13----|-14-------|
 |---11----------12-|---11----------12-|----13----|
 |-9-------10-------|-9-------10-------|-------11-|

6/8 12/8 1/4
E E E E E A E E E E E E A E A E E E E E E Q
 
 |---------2-(2)s5-|-----------5-(5)s=8--(8)s5-----------|----|
 |-----------------|---------------------------4---------|----|
 |-----2-5---------|------5--8-------------------5-------|----|
 |-----------------|-------------------------------4-----|----|
 |-3-6-------------|-6--9----------------------------6-3-|----|
 |-----------------|-------------------------------------|----|

|
| E E E E E A E E E E E E A E A E E E E E E Q
 
 |---------5-(5)s8-|-----------8-(8)s11-(11)s8-----------|----|
 |-----------------|---------------------------7---------|----|
 |-----5-8---------|------8-11-------------------8-------|----|
 |-----------------|-------------------------------7-----|----|
 |-6-9-------------|-9-12----------------------------9-6-|----|
 |-----------------|-------------------------------------|----|

12/8
[E] [E] [E] [E] [E] [E] [E] [E] [E] [E] [E] [E] [E] [E] [E] [E] [E] [E] [E] [E] [E] [E] [E] [E]  
 
 |-----------------------------|-----------------------------|
 |-----------------------------|-----------------------------|
 |-----------------------------|-----------------------------|
 |-----------------------------|-----------------------------|
 |-3---2---------3---2---1-----|-3---2---------3---2---1-----|
 |---4---3b3.5-----4---3---2-0-|---4---3b3.5-----4---3---2-0-|

|
| T
| W H E E E E E E E E E E E E
 
 |-----------------------------|-----------------------------|
 |-----------------------------|-----------------------------|
 |-----------------------------|-----------------------------|
 |-----------------------------|-----------------------------|
 |-----------------------------|-6---5---------6---5---4-----|
 |-----------------------------|---7---6b6.5-----7---6---5-0-|

[E] [E] [E] [E] [E] [E] [E] [E] [E] [E] [E] [E]  
 
 |------------------------------|
 |------------------------------|
 |------------------------------|
 |------------------------------|
 |-3---2---------3---2---1------|
 |---4---3b3.5-----4---3---2-0--|

|
| E E E E E E E E E E E E
 
 |------------------------------|
 |------------------------------|
 |------------------------------|
 |------------------------------|
 |-6---5---------6---5---4------|
 |---7---6b6.5-----7---6---5-0--|

[E] [E] [E] [E] [E] [E] [E] [E] [E] [E] [E] [E]  
 
 |---------------------------------------|
 |---------------------------------------|
 |---------------------------------------|
 |---------------------------------------|
 |-[3]---[2]---------[3]---[2]---[1]-----|
 |-----4-----3b3.5-------4-----3-----2-0-|

|
| E E E E E E E E E E E E
 
 |---------------------------------------|
 |---------------------------------------|
 |---------------------------------------|
 |---------------------------------------|
 |-[6]---[5]---------[6]---[5]---[4]-----|
 |-----7-----6b6.5-------7-----6-----5-0-|

[E] [E] [E] [E] [E] [E] [E] [E] [E] [E] [E] [E]  
 
 |---------------------------------------|
 |---------------------------------------|
 |---------------------------------------|
 |---------------------------------------|
 |-[3]---[2]---------[3]---[2]---[1]-----|
 |-----4-----3b3.5-------4-----3-----2-0-|

|
| E E E E E E E E E E E E
 
 |---------------------------------------|
 |---------------------------------------|
 |---------------------------------------|
 |---------------------------------------|
 |-[6]---[5]---------[6]---[5]---[4]-----|
 |-----7-----6b6.5-------7-----6-----5-0-|

[E] [E] [E] [E] [E] [E] [E] [E] [E] [E] [E] [E] [E] [E] [E] [E] [E] [E] [E] [E] [E] [E] [E] [E]  
 
 |-----------------------------|-----------------------------|
 |-----------------------------|-----------------------------|
 |-----------------------------|-----------------------------|
 |-----------------------------|-----------------------------|
 |-3---2---------3---2---1-----|-3---2---------3---2---1-----|
 |---4---3b3.5-----4---3---2-0-|---4---3b3.5-----4---3---2-0-|

|
| E E E E E E E E E E E E E E E E E E E E E E E E
 
 |-----------------------------|-----------------------------|
 |-----------------------------|-----------------------------|
 |-----------------------------|-----------------------------|
 |-----------------------------|-----------------------------|
 |-6---5---------6---5---4-----|-6---5---------6---5---4-----|
 |---7---6b6.5-----7---6---5-0-|---7---6b6.5-----7---6---5-0-|

[E] [E] [E] [E] [E] [E] [E] [E] [E] [E] [E] [E]  
 
 |---------------------------------------|
 |---------------------------------------|
 |---------------------------------------|
 |---------------------------------------|
 |-[3]---[2]---------[3]---[2]---[1]-----|
 |-----4-----3b3.5-------4-----3-----2-0-|

|
| E E E E E E E E E E E E
 
 |---------------------------------------|
 |---------------------------------------|
 |---------------------------------------|
 |---------------------------------------|
 |-[6]---[5]---------[6]---[5]---[4]-----|
 |-----7-----6b6.5-------7-----6-----5-0-|

E E E E E E E E E E E E W H
 
 |---------------------------------------|---------------|
 |---------------------------------------|---------------|
 |---------------------------------------|---------------|
 |---------------------------------------|---------------|
 |-[3]---[2]---------[3]---[2]---[1]-----|---------------|
 |-----4-----3b3.5-------4-----3-----2-0-|---------------|

|
| E E E E E E E E E E E E W H
 
 |---------------------------------------|---------------|
 |---------------------------------------|---------------|
 |---------------------------------------|---------------|
 |---------------------------------------|---------------|
 |-[6]---[5]---------[6]---[5]---[4]-----|---------------|
 |-----7-----6b6.5-------7-----6-----5-0-|---------------|

[E] [E] [E] [E] [E] [E] [E] [E] [E] [E] [E] [E] [E] [E] [E] [E] [E] [E] [E] [E] [E] [E] [E] [E]  
 
 |-----------------------------|-----------------------------|
 |-----------------------------|-----------------------------|
 |-----------------------------|-----------------------------|
 |-----------------------------|-----------------------------|
 |-3---2---------3---2---1-----|-3---2---------3---2---1-----|
 |---4---3b3.5-----4---3---2-0-|---4---3b3.5-----4---3---2-0-|

|
| E E E E E E E E E E E E E E E E E E E E E E E E
 
 |-----------------------------|-----------------------------|
 |-----------------------------|-----------------------------|
 |-----------------------------|-----------------------------|
 |-----------------------------|-----------------------------|
 |-6---5---------6---5---4-----|-6---5---------6---5---4-----|
 |---7---6b6.5-----7---6---5-0-|---7---6b6.5-----7---6---5-0-|

[E] [E] [E] [E] [E] [E] [E] [E] [E] [E] [E] [E]  
 
 |---------------------------------------|
 |---------------------------------------|
 |---------------------------------------|
 |---------------------------------------|
 |-[3]---[2]---------[3]---[2]---[1]-----|
 |-----4-----3b3.5-------4-----3-----2-0-|

|
| E E E E E E E E E E E E
 
 |---------------------------------------|
 |---------------------------------------|
 |---------------------------------------|
 |---------------------------------------|
 |-[6]---[5]---------[6]---[5]---[4]-----|
 |-----7-----6b6.5-------7-----6-----5-0-|

[E] [E] [E] [E] [E] [E] [E] [E] [E] [E] [E] [E]  
 
 |---------------------------------------|
 |---------------------------------------|
 |---------------------------------------|
 |---------------------------------------|
 |-[3]---[2]---------[3]---[2]---[1]-----|
 |-----4-----3b3.5-------4-----3-----2-0-|

|
| E E E E E E E E E E E E
 
 |---------------------------------------|
 |---------------------------------------|
 |---------------------------------------|
 |---------------------------------------|
 |-[6]---[5]---------[6]---[5]---[4]-----|
 |-----7-----6b6.5-------7-----6-----5-0-|

~~
 
 |--------3---------|

E E E E E E W
 
 ||----------------------------------------|
 ||o---------------------------------------|
 ||-----------------------10---------------|
 ||----------8-9-------10------------------|
 ||o-7-8---9-------------------------------|
 ||----------------------------------------|

|
| E E E E E E E E E E E E
 
 ||----------------------------------------|
 ||o---------------------------------------|
 ||----------------------------------------|
 ||----------------------------------------|
 ||o-6-------5---------------6---5---4-----|
 ||------7-------6b6.5---------7---6---5-0-|

~~
 
 |---------3----------|

E E E E E E W
 
 |-----------------------------------------|
 |------------------------12---------------|
 |----------9-10-------11------------------|
 |-8-9---10--------------------------------|
 |-----------------------------------------|
 |-----------------------------------------|

|
| E E E E E E E E E E E E
 
 |-----------------------------------------|
 |-----------------------------------------|
 |-----------------------------------------|
 |-----------------------------------------|
 |-6--------5----------------6---5---4-----|
 |-----7---------6b6.5---------7---6---5-0-|

~~
 
 |----------3----------|

E E E E E E W
 
 |-------------------------------------------------|
 |-------------------------------------------------|
 |--------------------------10---------------------|
 |------------8--9-------10------------------------|
 |--7--8---9---------------------------------------|
 |-------------------------------------------------|

|
| E E E E E E E E E E E E
 
 |-------------------------------------------------|
 |-------------------------------------------------|
 |-------------------------------------------------|
 |-------------------------------------------------|
 |-[6]-------[5]---------------[6]---[5]---[4]-----|
 |-------7---------6b6.5-----------7-----6-----5-0-|

~~
 
 |---------3----------|

E E E E E E W
 
 |-------------------------------------------------||
 |-------------------------10---------------------o||
 |------------7--8-------9-------------------------||
 |--6--7---8---------------------------------------||
 |------------------------------------------------o||
 |-------------------------------------------------||

|
| E E E E E E E E E E E E
 
 |-------------------------------------------------||
 |------------------------------------------------o||
 |-------------------------------------------------||
 |-------------------------------------------------||
 |-[6]-------[5]--------------[6]---[5]---[4]-----o||
 |-------7---------6b6.5----------7-----6-----5-0--||

[E] [E] [E] [E] [E] [E] [E] [E] [E] [E] [E] [E] [E] [E] [E] [E] [E] [E] [E] [E] [E] [E] [E] [E]  
 
 |-----------------------------|-----------------------------|
 |-----------------------------|-----------------------------|
 |-----------------------------|-----------------------------|
 |-----------------------------|-----------------------------|
 |-3---2---------3---2---1-----|-3---2---------3---2---1-----|
 |---4---3b3.5-----4---3---2-0-|---4---3b3.5-----4---3---2-0-|

|
| E E E E E E E E E E E E E E E E E E E E E E E E
 
 |-----------------------------|-----------------------------|
 |-----------------------------|-----------------------------|
 |-----------------------------|-----------------------------|
 |-----------------------------|-----------------------------|
 |-6---5---------6---5---4-----|-6---5---------6---5---4-----|
 |---7---6b6.5-----7---6---5-0-|---7---6b6.5-----7---6---5-0-|

Slower Q=120
[BbA5] [BbA5] [A5] [BbBbA5] [BbA5] [BbA5] [BbBbA5] 
[4/4] [2/4] [3/4] [2/4]  
 
 PM----------------------------------------------|

[E] [E] [E] [E] [E] [E] [E] [E] [E] [E] [E] [E] [E] [E] [E] [E] [E] [E] [E] [E] [E] [E]  
 
 |-----------------|---------|-------------|---------|
 |-----------------|---------|-------------|---------|
 |-----------------|---------|-------------|---------|
 |-----------------|---------|-------------|---------|
 |-----------------|---------|-------------|---------|
 |-5-4---5-4---5-4-|---5-5-4-|---5-4---5-4-|---5-5-4-|

|
| Gtr III
 
 | PM----------------------------------------------|

| E E E E E E E E E E E E E E E E E E E E E E
 
 |-----------------|---------|-------------|---------|
 |-----------------|---------|-------------|---------|
 |-----------------|---------|-------------|---------|
 |-----------------|---------|-------------|---------|
 |-----------------|---------|-------------|---------|
 |-5-4---5-4---5-4-|---5-5-4-|---5-4---5-4-|---5-5-4-|
 |-3-2---3-2---3-2-|---3-3-2-|---3-2---3-2-|---3-3-2-|

H=H
[BbA5] [BbA5] [BbBbA5] [BbA5] [BbA5] [Bb5] 
[3/4] [2/4] [4/4]  
 
 PM------------------------------------|

[E] [E] [E] [E] [E] [E] [E] [E] [E] [E] [E] [E] [E] [E] [E] [E] [E] [E]  
 
 |-------------|---------|-----------------|
 |-------------|---------|-----------------|
 |-------------|---------|-----------------|
 |-------------|---------|-----------------|
 |-------------|---------|-----------------|
 |---5-4---5-4-|---5-5-4-|---5-4---5-4---5-|

|
 
 | PM------------------------------------|

| E E E E E E E E E E E E E E E E E E
 
 |-------------|---------|-----------------|
 |-------------|---------|-----------------|
 |-------------|---------|-----------------|
 |-------------|---------|-----------------|
 |-------------|---------|-----------------|
 |---5-4---5-4-|---5-5-4-|---5-4---5-4---5-|
 |---3-2---3-2-|---3-3-2-|---3-2---3-2---3-|

Faster Q=230
N.C.
[4/4]  
 
 PM--------------| ~ PM--------------|-- ~
 |-------3-------| |-------3---------- ~

E E E E E E E E E Q E E E E E E E E E Q
 
 |----------------------|---------------------|
 |----------------------|---------------------|
 |-------------------7--|-------------------8-|
 |-------------6-7-7----|-------------7-8-8---|
 |-5-5-5-8-8-8----------|-6-6-6-9-9-9---------|
 |----------------------|---------------------|

|
| Gtr II
 
 | PM--------------| ~ PM--------------|-- ~
 | |-------3-------| |-------3---------- ~

| E E E E E E E E E Q E E E E E E E E E Q
 
 |----------------------|---------------------|
 |----------------------|---------------------|
 |-------------------7--|-------------------8-|
 |-------------6-7-7----|-------------7-8-8---|
 |-5-5-5-8-8-8----------|-6-6-6-9-9-9---------|
 |----------------------|---------------------|

TP TP TP TP TP TP TP TP TP TP TP TP TP TP TP TP
 
 |-3-| |-3-| |-3-| |-3-| |-3-| |-3-| |-3-| |-3-|

Q. Q. Q. Q. Q. Q. Q. Q. Q. Q. Q. Q. Q. Q. Q. Q.
 
 |-----------------|-----------------|-----------------|----------------|
 |-----------------|-----------------|-----------------|----------------|
 |-----------------|-----------------|-----------------|----------------|
 |-----------------|-----------------|-----------------|----------------|
 |---------5---4---|-1---0-----------|---------4---1---|-0--------------|
 |-0---3-----------|---------5---3---|-2---5-----------|-----5---3---2--|

|
| TP TP TP TP TP TP TP TP TP TP TP TP TP TP TP TP
 
 | |-3-| |-3-| |-3-| |-3-| |-3-| |-3-| |-3-| |-3-|

| Q. Q. Q. Q. Q. Q. Q. Q. Q. Q. Q. Q. Q. Q. Q. Q.
 
 |-----------------|-----------------|-----------------|----------------|
 |-----------------|-----------------|-----------------|----------------|
 |-----------------|-----------------|-----------------|----------------|
 |-----------------|-----------------|-----------------|----------------|
 |---------5---4---|-1---0-----------|---------4---1---|-0--------------|
 |-0---3-----------|---------5---3---|-2---5-----------|-----5---3---2--|

TP TP TP TP TP TP TP TP TP TP TP TP TP TP TP TP
 
 |-3-| |-3-| |-3-| |-3-| |-3-| |-3-| |-3-| |-3-|

Q. Q. Q. Q. Q. Q. Q. Q. Q. Q. Q. Q. Q. Q. Q. Q.
 
 |-----------------|-----------------|-----------------|----------------|
 |-----------------|-----------------|-----------------|----------------|
 |-----------------|-----------------|-----------------|----------------|
 |-----------------|-----------------|-----------------|----------------|
 |-----0---8---7---|-5---4-----------|---------7---5---|-4--------------|
 |-3---------------|---------8---7---|-5---8-----------|-----8---7---5--|

|
| TP TP TP TP TP TP TP TP TP TP TP TP TP TP TP TP
 
 | |-3-| |-3-| |-3-| |-3-| |-3-| |-3-| |-3-| |-3-|

| Q. Q. Q. Q. Q. Q. Q. Q. Q. Q. Q. Q. Q. Q. Q. Q.
 
 |-----------------|-----------------|-----------------|----------------|
 |-----------------|-----------------|-----------------|----------------|
 |-----------------|-----------------|-----------------|----------------|
 |-----------------|-----------------|-----------------|----------------|
 |---------5---4---|-1---0-----------|---------4---1---|-0--------------|
 |-0---3-----------|---------5---3---|-2---5-----------|-----5---3---2--|

7/8 5/8 7/8 5/8
[E] [E] [E] [E] [E] [E] [E] [E] [E] [E] [E] [E] [E] [E] [E] [E] [E] [E] [E] [E] [E] [E] [E] [E]  
 
 |---------------|-----------|---------------|-----------|
 |---------------|-----------|---------------|-----------|
 |---------------|-----------|-------2-3-4-5-|-----------|
 |-------5-6-7-8-|-------2-3-|-2-3-4---------|-------4-5-|
 |-5-6-7---------|-2-3-4-----|---------------|-4-5-6-----|
 |---------------|-----------|---------------|-----------|

|
| E E E E E E E E E E E E E E E E E E E E E E E E
 
 |---------------|-----------|---------------|-----------|
 |---------------|-----------|-------3-4-5-6-|-----------|
 |-------5-6-7-8-|-------2-3-|-2-3-4---------|-------4-5-|
 |-5-6-7---------|-2-3-4-----|---------------|-4-5-6-----|
 |---------------|-----------|---------------|-----------|
 |---------------|-----------|---------------|-----------|

Slightly Slower Q=225
6[G#5]/8 [A5] [G#5] [A5] 3/8[Bb5]
E Q E Q E Q E Q Q E
 
 ||------------|-----------|-------||
 ||o-----------|-----------|------o||
 ||------------|-----------|-------||
 ||------------|-----------|-------||
 ||o-6----7----|-6----7----|----8-o||
 ||--6----7----|-6----7----|----8--||

|
| E Q E Q E Q E Q Q E
 
 ||------------|-----------|-------||
 ||o-----------|-----------|------o||
 ||------------|-----------|-------||
 ||------------|-----------|-------||
 ||o-6----7----|-6----7----|----8-o||
 ||--6----7----|-6----7----|----8--||

6/8 3/8
[E] [E] [E] [E] [E] [E] [E] [E] [E] [E] [E] [E] [E] [E] [E]  
 
 ||-------------------|------------------|-----------||
 ||o------------------|------------------|----------o||
 ||-------------------|------------------|-----------||
 ||--------9----10----|-------9----10----|-11--------||
 ||o----8-----------9-|----8-----------9-|----10----o||
 ||--6--------7-------|-6--------7-------|--------8--||

|
| E E E E E E E E E E E E E E E
 
 ||-------------------|------------------|-----------||
 ||o------------------|------------------|----------o||
 ||-------------------|------------------|-----------||
 ||-------12----13----|------12----13----|-14--------||
 ||o---11----------12-|---11----------12-|----13----o||
 ||--9-------10-------|-9-------10-------|-------11--||

6/8 9/8
[E] [E] [E] [E] [E] [A] [E] [E] [E] [E] [E] [E] [A] [E] [A] [E] [E] [E]  
 
 |---------2-(2)s5-|-----------5-(5)s=8--(8)s5-----|
 |-----------------|---------------------------4---|
 |-----2-5---------|------5--8-------------------5-|
 |-----------------|-------------------------------|
 |-3-6-------------|-6--9--------------------------|
 |-----------------|-------------------------------|

|
| E E E E E A E E E E E E A E A E E E
 
 |---------5-(5)s8-|-----------8-(8)s11-(11)s8-----|
 |-----------------|---------------------------7---|
 |-----5-8---------|------8-11-------------------8-|
 |-----------------|-------------------------------|
 |-6-9-------------|-9-12--------------------------|
 |-----------------|-------------------------------|

6/8 3/8
[E] [E] [E] [E] [E] [E] [E] [E] [E] [E] [E] [E] [E] [E] [E]  
 
 |------------------|------------------|----------|
 |------------------|------------------|----------|
 |------------------|------------------|----------|
 |-------9----10----|-------9----10----|-11-------|
 |----8-----------9-|----8-----------9-|----10----|
 |-6--------7-------|-6--------7-------|--------8-|

|
| E E E E E E E E E E E E E E E
 
 |------------------|------------------|----------|
 |------------------|------------------|----------|
 |------------------|------------------|----------|
 |------12----13----|------12----13----|-14-------|
 |---11----------12-|---11----------12-|----13----|
 |-9-------10-------|-9-------10-------|-------11-|

6/8 12/8
[E] [E] [E] [E] [E] [A] [E] [E] [E] [E] [E] [E] [A] [E] [A] [E] [E] [E] [E] [E] [E]  
 
 |---------2-(2)s5-|-----------5-(5)s=8--(8)s5-----------|
 |-----------------|---------------------------4---------|
 |-----2-5---------|------5--8-------------------5-------|
 |-----------------|-------------------------------4-----|
 |-3-6-------------|-6--9----------------------------6-3-|
 |-----------------|-------------------------------------|

|
| E E E E E A E E E E E E A E A E E E E E E
 
 |---------5-(5)s8-|-----------8-(8)s11-(11)s8-----------|
 |-----------------|---------------------------7---------|
 |-----5-8---------|------8-11-------------------8-------|
 |-----------------|-------------------------------7-----|
 |-6-9-------------|-9-12----------------------------9-6-|
 |-----------------|-------------------------------------|

W H W H
 
 |---------------|---------------|
 |---------------|---------------|
 |---------------|---------------|
 |---------------|---------------|
 |---------------|---------------|
 |---------------|---------------|

|
| W H W H
 
 |---------------|---------------|
 |---------------|---------------|
 |---------------|---------------|
 |---------------|---------------|
 |---------------|---------------|
 |---------------|---------------|

[E] [E] [E] [E] [E] [E] [E] [E] [E] [E] [E] [E] [E] [E] [E] [E] [E] [E] [E] [E] [E] [E] [E] [E]  
 
 ||------------------------------|-----------------------------|
 ||o-----------------------------|-----------------------------|
 ||------------------------------|-----------------------------|
 ||------------------------------|-----------------------------|
 ||o-3---2---------3---2---1-----|-3---2---------3---2---1-----|
 ||----4---3b3.5-----4---3---2-0-|---4---3b3.5-----4---3---2-0-|

|
| E E E E E E E E E E E E E E E E E E E E E E E E
 
 ||------------------------------|-----------------------------|
 ||o-----------------------------|-----------------------------|
 ||------------------------------|-----------------------------|
 ||------------------------------|-----------------------------|
 ||o-6---5---------6---5---4-----|-6---5---------6---5---4-----|
 ||----7---6b6.5-----7---6---5-0-|---7---6b6.5-----7---6---5-0-|

[E] [E] [E] [E] [E] [E] [E] [E] [E] [E] [E] [E]  
 
 |---------------------------------------|
 |---------------------------------------|
 |---------------------------------------|
 |---------------------------------------|
 |-[3]---[2]---------[3]---[2]---[1]-----|
 |-----4-----3b3.5-------4-----3-----2-0-|

|
| E E E E E E E E E E E E
 
 |---------------------------------------|
 |---------------------------------------|
 |---------------------------------------|
 |---------------------------------------|
 |-[6]---[5]---------[6]---[5]---[4]-----|
 |-----7-----6b6.5-------7-----6-----5-0-|

[E] [E] [E] [E] [E] [E] [E] [E] [E] [E] [E] [E]  
 
 |----------------------------------------||
 |---------------------------------------o||
 |----------------------------------------||
 |----------------------------------------||
 |-[3]---[2]---------[3]---[2]---[1]-----o||
 |-----4-----3b3.5-------4-----3-----2-0--||

|
| E E E E E E E E E E E E
 
 |----------------------------------------||
 |---------------------------------------o||
 |----------------------------------------||
 |----------------------------------------||
 |-[6]---[5]---------[6]---[5]---[4]-----o||
 |-----7-----6b6.5-------7-----6-----5-0--||

[E] [E] [E] [E] [E] [E] [E] [E] [E] [E] [E] [E] [E] [E] [E] [E] [E] [E] [E] [E] [E] [E] [E] [E]  
 
 |-----------------------------|-----------------------------|
 |-----------------------------|-----------------------------|
 |-----------------------------|-----------------------------|
 |-----------------------------|-----------------------------|
 |-5---4---------5---4---3-----|-5---4---------5---4---3-----|
 |---6---5b5.5-----6---5---4-0-|---6---5b5.5-----6---5---4-0-|

|
| E E E E E E E E E E E E E E E E E E E E E E E E
 
 |-----------------------------|-----------------------------|
 |-----------------------------|-----------------------------|
 |-----------------------------|-----------------------------|
 |-----------------------------|-----------------------------|
 |-8---7---------8---7---6-----|-8---7---------8---7---6-----|
 |---9---8b8.5-----9---8---7-0-|---9---8b8.5-----9---8---7-0-|

[E] [E] [E] [E] [E] [E] [E] [E] [E] [E] [E] [E] [E] [E] [E] [E] [E] [E] [E] [E] [E] [E] [E] [E]  
 
 |-----------------------------|-----------------------------|
 |-----------------------------|-----------------------------|
 |-----------------------------|-----------------------------|
 |-----------------------------|-----------------------------|
 |-3---2---------3---2---1-----|-3---2---------3---2---1-----|
 |---4---3b3.5-----4---3---2-0-|---4---3b3.5-----4---3---2-0-|

|
| E E E E E E E E E E E E E E E E E E E E E E E E
 
 |-----------------------------|-----------------------------|
 |-----------------------------|-----------------------------|
 |-----------------------------|-----------------------------|
 |-----------------------------|-----------------------------|
 |-6---5---------6---5---4-----|-6---5---------6---5---4-----|
 |---7---6b6.5-----7---6---5-0-|---7---6b6.5-----7---6---5-0-|

Slower Q=100 H=H
[D5]  
[4/4] W +W E H..
 
 |----------|------------|----------|
 |----------|------------|----------|
 |----------|------------|----------|
 |-0--------|-(0)--------|----------|
 |-0--------|-(0)--------|-0--------|
 |-0--------|-(0)--------|-0--------|

|
| W +W E H..
 
 |----------|------------|----------|
 |----------|------------|----------|
 |----------|------------|----------|
 |-0--------|-(0)--------|----------|
 |-0--------|-(0)--------|-0--------|
 |-0--------|-(0)--------|-0--------|

Slightly Faster Q=110
[D5EbG5EbF#5] [G5Eb5] [F#5] [G5EbF#EbF#5]  
[E] [E] [E] [E] [E] [E] [E] [E] [E] [E] [E] [E] [E] [E] [E] [E]  
 
 |---------------------|-------------------------|
 |---------------------|-------------------------|
 |---------------------|-------------------------|
 |-----------[3]b5-----|---[3]b5-----------[3]b5-|
 |-0-1-5-1-4-------5-1-|-4-------5-1-4-1-4-------|
 |-0-1-5-1-4-------5-1-|-4-------5-1-4-1-4-------|

|
| E E E E E E E E E E E E E E E E
 
 |---------------------|-------------------------|
 |---------------------|-------------------------|
 |---------------------|-------------------------|
 |-----------[3]b5-----|---[3]b5-----------[3]b5-|
 |-0-1-5-1-4-------5-1-|-4-------5-1-4-1-4-------|
 |-0-1-5-1-4-------5-1-|-4-------5-1-4-1-4-------|

[D5EbG5EbF#5] [G5Eb5] [F#5] [G5Eb5]  
[E] [E] [E] [E] [E] [E] [E] [E] [E] [E] [E] [E] [B]  
 
 |---------------------|-----------------|
 |---------------------|-----------------|
 |---------------------|-----------------|
 |-----------[3]b5-----|---[3]b5---------|
 |-0-1-5-1-4-------5-1-|-4-------5-1-----|
 |-0-1-5-1-4-------5-1-|-4-------5-1-----|

|
| E E E E E E E E E E E E H
 
 |---------------------|-----------------|
 |---------------------|-----------------|
 |---------------------|-----------------|
 |-----------[3]b5-----|---[3]b5---------|
 |-0-1-5-1-4-------5-1-|-4-------5-1-----|
 |-0-1-5-1-4-------5-1-|-4-------5-1-----|

[D5EbG5EbF#5] [G5Eb5] [F#5] [G5EbF#EbF#5]  
[E] [E] [E] [E] [E] [E] [E] [E] [E] [E] [E] [E] [E] [E] [E] [E]  
 
 |---------------------|-------------------------|
 |---------------------|-------------------------|
 |---------------------|-------------------------|
 |-----------[3]b5-----|---[3]b5-----------[3]b5-|
 |-0-1-5-1-4-------5-1-|-4-------5-1-4-1-4-------|
 |-0-1-5-1-4-------5-1-|-4-------5-1-4-1-4-------|

|
| E E E E E E E E E E E E E E E E
 
 |---------------------|-------------------------|
 |---------------------|-------------------------|
 |---------------------|-------------------------|
 |-----------[3]b5-----|---[3]b5-----------[3]b5-|
 |-0-1-5-1-4-------5-1-|-4-------5-1-4-1-4-------|
 |-0-1-5-1-4-------5-1-|-4-------5-1-4-1-4-------|

[D5EbG5EbF#5] [G5Eb5] [F#5] [G5EbF#EbF#5]  
[E] [E] [E] [E] [E] [E] [E] [E] [E] [E] [E] [E] [E] [E] [E] [E]  
 
 |---------------------|----------------------|
 |---------------------|----------------------|
 |---------------------|----------------------|
 |-----------[3]b5-----|---[3]b5--------------|
 |-0-1-5-1-4-------5-1-|-4-------5-1-4-1-4----|
 |-0-1-5-1-4-------5-1-|-4-------5-1-4-1-4----|

|
| E E E E E E E E E E E E E E E E
 
 |---------------------|----------------------|
 |---------------------|----------------------|
 |---------------------|----------------------|
 |-----------[3]b5-----|---[3]b5--------------|
 |-0-1-5-1-4-------5-1-|-4-------5-1-4-1-4----|
 |-0-1-5-1-4-------5-1-|-4-------5-1-4-1-4----|

Slightly Faster Q=113
[D5]Gtr IV[Eb5] [G5] [Eb5] [F#5] [G5] [Eb5] [F#5] [G5] [Eb5] [G5] [Eb5] [F#5]
~~~ ~~~~~~~~~~~~~~
|--3--|
H. Q H E +Q S S S
 
 |-------------------------------|--------------------------14h15h17-|
 |-/3--------------------3-------|-4-----------2---(2)/--------------|
 |-------------------------------|-----------------------------------|
 |-------------------------------|-----------------------------------|
 |-------------------------------|-----------------------------------|
 |-------------------------------|-----------------------------------|

|
| Gtrs I, II
 
 | PM-------------------------------------| PM---------|

| S S S S S S S S e E S S S S e E S S S S S S S S e E
 
 |-------------------------------|-----------------------------------|
 |-------------------------------|-----------------------------------|
 |-------------------------------|-----------------------------------|
 |-------------------------------|-----------------------------------|
 |--0--0-1-1-5-5-1-1-4---5-5-1-1-|-4---5-5-1-1-5-5--1---1-4----------|
 |--0--0-1-1-5-5-1-1-4---5-5-1-1-|-4---5-5-1-1-5-5--1---1-4----------|

[D5] T T [Eb5] [G5] T T [Eb5] [F#5] T T [G5] T T[Eb5]
 
 |--------3---------| |--------3---------| |------3-------| |--------3---------|

S S S S S S S S S S S S S S S S S S S S S S S S
 
 |-18p17h==18p17p15p==14-18p17h==18p17p15p==14-18p17h18p17p15p14-18p17h==18p17p15p==14--|
 |--------------------------------------------------------------------------------------|
 |--------------------------------------------------------------------------------------|
 |--------------------------------------------------------------------------------------|
 |--------------------------------------------------------------------------------------|
 |--------------------------------------------------------------------------------------|

|
 
 | PM----------------------------------------------------------------------------|

| S S S S S S S S e E S S S S
 
 |--------------------------------------------------------------------------------------|
 |--------------------------------------------------------------------------------------|
 |--------------------------------------------------------------------------------------|
 |--------------------------------------------------------------------------------------|
 |--0----0-----1----1-----5----5-----1----1-----4-----------------5----5-----1----1-----|
 |--0----0-----1----1-----5----5-----1----1-----4-----------------5----5-----1----1-----|

[F#5] T T [G5] T T [Eb5] [G5] T T [Eb5] [F#5] ~~
 
 |------3-------| |--------3---------| |--------3---------|

S S S S S S S S S S S S S S S S S S a Q
 
 |-14p13h14p13p11p10-14p13h==14p13p11p==10-14p13h==14p13p11p==10-8s10---|
 |----------------------------------------------------------------------|
 |----------------------------------------------------------------------|
 |----------------------------------------------------------------------|
 |----------------------------------------------------------------------|
 |----------------------------------------------------------------------|

|
 
 | PM--------------------------| PM---------------------|

| e E S S S S S S S S e E
 
 |----------------------------------------------------------------------|
 |----------------------------------------------------------------------|
 |----------------------------------------------------------------------|
 |----------------------------------------------------------------------|
 |--4-----------------5----5-----1----1-----4----4-----1----1-------4---|
 |--4-----------------5----5-----1----1-----4----4-----1----1-------4---|

N.C.
S S S S S S S S S S S S S S S S
 
 |-10-11----10-------------------------------------|
 |-------13----11-13-10-11----10-------------------|
 |-------------------------12----11-12----11-------|
 |-------------------------------------13----12-13-|
 |-------------------------------------------------|
 |-------------------------------------------------|

|
 
 | PM----------------------------------------------

| S S S S S S S S e E S S S S
 
 |-------------------------------------------------|
 |-------------------------------------------------|
 |-------------------------------------------------|
 |-------------------------------------------------|
 |--5--5--6--6-10-10--6--6--9----------10-10--6--6-|
 |-------------------------------------------------|

~
S S S S S S S S E E Q
 
 |------------------------------------|
 |------------------------------------|
 |------------------------------------|
 |-10-12----10------------------------|
 |-------13----12-13-10-12-9---6S==9--|
 |------------------------------------|

|
 
 |---------------------------------~

| e E S S S S S S S S Q
 
 |------------------------------------|
 |------------------------------------|
 |------------------------------------|
 |------------------------------------|
 |--9----------10-10--6--6-9-9-6-6-9--|
 |------------------------------------|
 |-----3-----| |------3-------| |------3-------| |------3-------|

S S S S S S S S S S S S S S S S S S S S S S S S
 
 |---------------------------------------------------11h14p11----------|
 |-7h10p7--------10h13p10----------13h16p13-------------------13-------|
 |--------8---------------11----------------14-------------------14p11-|
 |----------10p7-------------13p10-------------16p13-------------------|
 |---------------------------------------------------------------------|
 |---------------------------------------------------------------------|

|
| ~~~
| E E E E Q E E
 
 |---------------------------------------------------------------------|
 |---------------------------------------------------------------------|
 |---------------------------------------------------------------------|
 |---------------------------------------------------------------------|
 |---------------------------------------------------------------------|
 |-0------1------/5-------\1-------/4----------------/5-------\1-------|

~~
 
 |------3-------| |------3-------|

S S S S S S S S S S S S E a E Q
 
 |-14h17p14----------17h20p17----------20-(20)s23-23---|
 |----------16----------------19-----------------------|
 |-------------17p14-------------20p17-----------------|
 |-----------------------------------------------------|
 |-----------------------------------------------------|
 |-----------------------------------------------------|

|
| ~~~ ~~
| Q E E E E Q
 
 |-----------------------------------------------------|
 |-----------------------------------------------------|
 |-----------------------------------------------------|
 |-----------------------------------------------------|
 |-----------------------------------------------------|
 |-/4----------------/5-------\1-------/4------\1-/4---|

S S S S S S S S S S S S S S S S
 
 |-22-23-20-22-18-20-17-18-15-17-14-15-11-14-10-11-|
 |-------------------------------------------------|
 |-------------------------------------------------|
 |-------------------------------------------------|
 |-------------------------------------------------|
 |-------------------------------------------------|

|
| ~~
| E E E E Q E E
 
 |-------------------------------------------------|
 |-------------------------------------------------|
 |-------------------------------------------------|
 |-------------------------------------------------|
 |-------------------------------------------------|
 |--0-----1----/5----\1----/4----------/5----\1----|

~~
|--3--|
S S S S S S S S E S S S Q
 
 |----10-----------------------------------|
 |-13----11-13-10-11----10-----------------|
 |-------------------12----11-14p11----11--|
 |----------------------------------13-----|
 |-----------------------------------------|
 |-----------------------------------------|

|
| ~~ ~~
| Q E E E E Q
 
 |-----------------------------------------|
 |-----------------------------------------|
 |-----------------------------------------|
 |-----------------------------------------|
 |-----------------------------------------|
 |-/4----------/5----\1----/4-\1-------/4--|

[D5] [Eb5] [G5] [Eb5] [F#5] [G5] [Eb5]  
 
 |------3-------| |------3-------| |------3-------| |-----3------|

S S S S S S S S S S S S S S S S S S S S S S +E
 
 |----------------------------------------------------------14-15-17-(17)-|
 |----------------------------------15-16-15----------15-16---------------|
 |-------14-15-14----------14-15-17----------17-15-17---------------------|
 |-16-17----------17-16-17------------------------------------------------|
 |------------------------------------------------------------------------|
 |---------------------------------

Important: The song above is NOT stored on the Chordie server. The original song is hosted at www.guitartabs.cc. Chordie works as a search engine and provides on-the-fly formatting. Chordie does not index songs against artists'/composers' will. To remove this song please click here.

Text color:
Chord color:
Chord grids: 
Font size:    
Page size: 

A A5 B Bb5 D5 E Eb5 F#5 G#5 G5
Rate #1 of 3 versions

Jango Player

Login - add to songbook

SHARE PAGE  



You need to log in to post comments