Guitar Tabs, Chords and Lyrics
Server problems seems to be fixed. Chordie has been experiencing problems with songs disappearing. These issues now seems to be fixed, but still verifying the fix. If you find anything strange, please email admin@chordie.com.


Leica  The Faceless

As recorded by The Faceless
(From the 2006 Album THE FACE)
Transcribed by Eric De La Torre
Words and Music by The Faceless
Arranged by The Faceless
[C5]0 0 x x x x
[G#5]8 8 x x x x
[Eb5]3 3 x x x x
[Bb5]10 10 x x x x
[G/B]11 12 x x x x
Gtr I (C G C F A D) - 'Guitar left'
Gtr II (C G C F A D) - 'Guitar right'
Gtr III (C G C F A D) - 'Add. Guitar'
Gtr IV (C G C F A D) - 'Synth 1'
Gtr V (C G C F A D) - 'Synth 2'
Gtr VI (C G C F A D) - 'Synth 3'
Intro/Riff A
Q=220
[4/4] Gtr I
PM--| PM PM PM PM PM--| PM PM|
S S E E E E E E E E E E E E E Q S S E E E E E E E E q q Q.
 
 |--------------------|----------------|--------------------|----------------|
 |--------------------|----------------|--------------------|----------------|
 |--------------------|----------------|--------------------|----------------|
 |--------------------|----------------|--------------------|-8-10--3--5-----|
 |-0-0-0-3----3-5---3-|-6---3---3-5-6--|-0-0-0-3----3-5-----|-8--8--3--3-----|
 |-0-0-0----0-----0---|---0---0--------|-0-0-0----0-----0-0-|-8--7--3--2-----|

|
| Gtr II
| PM--| PM--|
| S S E H. W S S E H. E q q Q.
 
 |--------------------|----------------|--------------------|----------------|
 |--------------------|----------------|--------------------|----------------|
 |--------------------|----------------|--------------------|----------------|
 |--------------------|----------------|--------------------|-8-10--3--5-----|
 |-0-0-0--------------|----------------|-0-0-0--------------|-8--8--3--3-----|
 |-0-0-0--------------|----------------|-0-0-0--------------|-8--7--3--2-----|

PM--| PM PM PM PM
S S E E E E E E E E E E E E E Q
 
 |-------------------|----------------|
 |-------------------|----------------|
 |-------------------|----------------|
 |-------------------|----------------|
 |-0-0-0-3---3-5---3-|-6---3---3-5-6--|
 |-0-0-0---0-----0---|---0---0--------|

|
| PM--| PM PM PM PM
| S S E E E E E E E E E E E E E Q
 
 |-------------------|----------------|
 |-------------------|----------------|
 |-------------------|----------------|
 |-------------------|----------------|
 |-0-0-0-3---3-5---3-|-6---3---3-5-6--|
 |-0-0-0---0-----0---|---0---0--------|

PM--| PM PM|
S S E E E E E E E E Q Q Q E +E Q Q Q.
 
 |-------------------|--------------|-----------------|
 |-------------------|--------------|-----------------|
 |-------------------|--------------|-----------------|
 |-------------------|-8-7--5-------|-----------------|
 |-0-0-0-3---3-5-----|---------8--7-|-(7)-5--4--0-----|
 |-0-0-0---0-----0-0-|--------------|-----------------|

|
| PM--| PM PM|
| S S E E E E E E E E Q Q Q E +E Q Q Q.
 
 |-------------------|--------------|-----------------|
 |-------------------|--------------|-----------------|
 |-------------------|--------------|-----------------|
 |-------------------|-5------------|-----------------|
 |-0-0-0-3---3-5-----|---8--7--5--4-|-(4)-1--0--------|
 |-0-0-0---0-----0-0-|--------------|-----------2-----|

+W +W
 
 |------------|--------|
 |------------|--------|
 |------------|--------|
 |------------|--------|
 |-(0)--------|-(0)----|
 |------------|--------|

|
| +W +W
 
 |------------|--------|
 |------------|--------|
 |------------|--------|
 |------------|--------|
 |------------|--------|
 |-(2)--------|-(2)----|

Intro (Pt. II)
PM--| PM PM PM PM PM--| PM PM|
S S E E E E E E E E E E E E E Q S S E E E E E E E E q q Q.
 
 ||--------------------|----------------|-------------------|-----------------||
 ||o-------------------|----------------|-------------------|----------------o||
 ||--------------------|----------------|-------------------|-----------------||
 ||--------------------|----------------|-------------------|-8-10--3--5------||
 ||o-0-0-0-3---3-5---3-|-6---3---3-5-6--|-0-0-0-3---3-5-----|-8--8--3--3-----o||
 ||--0-0-0---0-----0---|---0---0--------|-0-0-0---0-----0-0-|-8--7--3--2------||

|
| PM--| PM PM PM PM PM--| PM PM|
| S S E E E E E E E E E E E E E Q S S E E E E E E E E q q Q.
 
 ||--------------------|----------------|-------------------|-----------------||
 ||o-------------------|----------------|-------------------|----------------o||
 ||--------------------|----------------|-------------------|-----------------||
 ||--------------------|----------------|-------------------|-8-10--3--5------||
 ||o-0-0-0-3---3-5---3-|-6---3---3-5-6--|-0-0-0-3---3-5-----|-8--8--3--3-----o||
 ||--0-0-0---0-----0---|---0---0--------|-0-0-0---0-----0-0-|-8--7--3--2------||

PM--| PM PM PM PM
S S E E E E E E E E E E E E E Q
 
 ||--------------------|------------------|
 ||o-------------------|------------------|
 ||--------------------|------------------|
 ||--------------------|------------------|
 ||o-0-0-0-3---3-5---3-|--6---3---3-5--6--|
 ||--0-0-0---0-----0---|----0---0---------|

|
| PM--| PM PM PM PM
| S S E E E E E E E E E E E E E Q
 
 ||--------------------|------------------|
 ||o-------------------|------------------|
 ||--------------------|------------------|
 ||--------------------|------------------|
 ||o-0-0-0-6---6-9---6-|-10---6---6-9-10--|
 ||--0-0-0---0-----0---|----0---0---------|

PM--| PM PM|
S S E E E E E E E E q q Q.
 
 |-------------------|-----------------||
 |-------------------|----------------o||
 |-------------------|-----------------||
 |-------------------|-8-10--3--5------||
 |-0-0-0-3---3-5-----|-8--8--3--3-----o||
 |-0-0-0---0-----0-0-|-8--7--3--2------||

|
| PM--| PM PM|
| S S E E E E E E E E q q Q.
 
 |-------------------|-----------------||
 |-------------------|----------------o||
 |-------------------|-----------------||
 |-------------------|-8-10--3--5------||
 |-0-0-0-6---6-9-----|-8--8--3--3-----o||
 |-0-0-0---0-----0-0-|-8--7--3--2------||

Riff B
 
 PM----| PM----| PM----| TP TP TP TP

E E E E E E E E E E E E E E E E E E E E E E E E Q Q Q Q 4x
 
 ||------------------|-----------------|-----------------|---------------||
 ||o-----------------|-----------------|-----------------|--------------o||
 ||------------------|-----------------|-----------------|---------------||
 ||----------5-4-----|---------5-4-----|---------5-4-----|---------------||
 ||o-------------6-5-|-------------6-5-|-------------6-5-|-3--5--6--5---o||
 ||--5-5-5-5---------|-5-5-5-5---------|-4-4-4-4---------|---------------||

|
 
 | PM----| PM----| PM----| TP TP TP TP

| E E E E E E E E E E E E E E E E E E E E E E E E Q Q Q Q 4x
 
 ||------------------|-----------------|-----------------|---------------||
 ||o-----------------|-----------------|-----------------|--------------o||
 ||----------7-6-----|---------7-6-----|---------7-6-----|---------------||
 ||--------------8-7-|-------------8-7-|-------------8-7-|-8--7--5--7----||
 ||o-----------------|-----------------|-----------------|--------------o||
 ||--5-5-5-5---------|-5-5-5-5---------|-4-4-4-4---------|---------------||

Riff C
 
 PM----------------------------| ~~~
 |-------3-------|

Q Q Q Q E E E E E E E E E Q
 
 |-------------|------------------------|
 |-------------|------------------------|
 |-------------|------------------------|
 |-------------|-------------------[3]--|
 |-3--2--5--4--|-1-1-1-1-1-1-1-1-1------|
 |-3--2--5--4--|-1-1-1-1-1-1-1-1-1------|

|
 
 | PM----------------------------| ~~~
 | |-------3-------|

| Q Q Q Q E E E E E E E E E Q
 
 |-------------|------------------------|
 |-------------|------------------------|
 |-------------|------------------------|
 |-------------|-------------------[3]--|
 |-3--2--5--4--|-1-1-1-1-1-1-1-1-1------|
 |-3--2--5--4--|-1-1-1-1-1-1-1-1-1------|

[7/4] PM-| PM-| PM-| PM-|
E. E. H E. E. H E. E. H E. E. H
 
 ||----------------------------|--------------------------------|
 ||o---------------------------|--------------------------------|
 ||--------4b5r=========4b5r===|========9b10r==========9b10r====|
 ||--------5b6r=========5b6r===|=======10b11r=========10b11r====|
 ||o-3--3---------3--3---------|-8--8-----------8--8------------|
 ||--3--3---------3--3---------|-8--8-----------8--8------------|

|
| PM-| PM-| PM-| PM-|
| E. E. H E. E. H E. E. H E. E. H
 
 ||----------------------------|--------------------------------|
 ||o---------------------------|--------------------------------|
 ||----------------------------|--------------------------------|
 ||----------------------------|--------------------------------|
 ||o-3--3---------3--3---------|-8--8-----------8--8------------|
 ||--3--3---------3--3---------|-8--8-----------8--8------------|

PM-| PM-|
E. E. H E. E. H
 
 |---------------------------|
 |---------------------------|
 |-------3b4r=========3b4r===|
 |-------4b5r=========4b5r===|
 |-2--2---------2--2---------|
 |-2--2---------2--2---------|

|
| PM-| PM-|
| E. E. H E. E. H
 
 |---------------------------|
 |---------------------------|
 |---------------------------|
 |---------------------------|
 |-2--2---------2--2---------|
 |-2--2---------2--2---------|

Q=180
PM-| PM-| [5/4] PM| PM PM| PM
E. E. H E. E. H E E E E E E E E E E
 
 |-----------------------------|---------------------|
 |-----------------------------|---------------------|
 |-------8b9r==========8b9r====|=====================|
 |-------9b10r=========9b10r===|=====4---5-----3---5-|
 |-7--7----------7--7----------|---2---------1-------|
 |-7--7----------7--7----------|-2-----2---1-----1---|

|
| PM-| PM-| PM| PM PM| PM
| E. E. H E. E. H E E E E E E E E E E
 
 |-----------------------------|---------------------|
 |-----------------------------|---------------------|
 |-----------------------------|---------------------|
 |-----------------------------|-----4---5-----3---5-|
 |-7--7----------7--7----------|---2---------1-------|
 |-7--7----------7--7----------|-2-----2---1-----1---|

[5/4] PM| PM PM| PM| [4/4] PM| PM|
E E E E E E E E E E E E E E E E Q
 
 |---------------------|-----------------||
 |---------------4-----|-4--------------o||
 |---------------4-----|-4-----8-----8---||
 |-----7---9-----------|-------9-----9---||
 |---5-------3-3---2-2-|----------------o||
 |-5-----5-------------|---6-6---5-5-----||

|
| PM| PM PM| PM| PM| PM|
| E E E E E E E E E E E E E E E E Q
 
 |---------------------|-----------------||
 |---------------4-----|-4--------------o||
 |---------------4-----|-4-----8-----8---||
 |-----7---9-----------|-------9-----9---||
 |---5-------3-3---2-2-|----------------o||
 |-5-----5-------------|---6-6---5-5-----||

Riff D
Gtr I
 
 PM------------| PM-------------|

S S S S S S S S S S E E E S S S S S S S S S S E E E
 
 ||------------------------------|-------------------------------|
 ||o-----------------------------|-------------------------------|
 ||------------------------------|-------------------------------|
 ||------------------------------|-------------------------------|
 ||o------------------7-8-7-10-7-|--------------------7-8-7-10-7-|
 ||---0-0-0-0-0-0-0-0------------|---0--0-0-0-0-0-0-0------------|

|
| Gtr II
 
 | PM------------| PM-------------|

| S S S S S S S S S S E E E S S S S S S S S S S E E E
 
 ||------------------------------|-------------------------------|
 ||o-----------------------------|-------------------------------|
 ||------------------------------|-------------------------------|
 ||-------------------5-7-5--8-5-|--------------------5-7-5--8-5-|
 ||o-----------------------------|-------------------------------|
 ||---0-0-0-0-0-0-0-0------------|---0--0-0-0-0-0-0-0------------|

|
| Gtr IV
| <
| W +W
 
 ||------------------------------|-------------------------------|
 ||o-----------------------------|-------------------------------|
 ||--10--------------------------|-(10)--------------------------|
 ||--12--------------------------|-(12)--------------------------|
 ||o-----------------------------|-------------------------------|
 ||------------------------------|-------------------------------|
 PM------------| PM------------| TP

S S S S S S S S S S E E E S S S S S S S S Q Q
 
 |-----------------------------|-------------------------|
 |-----------------------------|-------------------------|
 |-----------------------------|-------------------------|
 |-----------------------------|-------------------8--7--|
 |------------------7-8-7-10-7-|-------------------------|
 |--8-8-8-8-8-8-8-8------------|--5-5-5-5-5-5-5-5--------|

|
 
 | PM------------| PM------------| TP

| S S S S S S S S S S E E E S S S S S S S S Q Q
 
 |-----------------------------|-------------------------|
 |-----------------------------|-------------------------|
 |-----------------------------|-------------------------|
 |------------------5-7-5--8-5-|-------------------------|
 |-----------------------------|------------------10--8--|
 |--8-8-8-8-8-8-8-8------------|--5-5-5-5-5-5-5-5--------|

|
| W W
 
 |-----------------------------|-------------------------|
 |-----------------------------|-------------------------|
 |-19--------------------------|-15----------------------|
 |-20--------------------------|-17----------------------|
 |-----------------------------|-------------------------|
 |-----------------------------|-------------------------|
 PM------------| PM-------------|

S S S S S S S S S S E E E S S S S S S S S S S E E E
 
 |-----------------------------|-------------------------------|
 |-----------------------------|-------------------------------|
 |-----------------------------|-------------------------------|
 |-----------------------------|-------------------------------|
 |------------------7-8-7-10-7-|--------------------7-8-7-10-7-|
 |--0-0-0-0-0-0-0-0------------|---0--0-0-0-0-0-0-0------------|

|
 
 | PM------------| PM-------------|

| S S S S S S S S S S E E E S S S S S S S S S S E E E
 
 |-----------------------------|-------------------------------|
 |-----------------------------|-------------------------------|
 |-----------------------------|-------------------------------|
 |------------------5-7-5--8-5-|--------------------5-7-5--8-5-|
 |-----------------------------|-------------------------------|
 |--0-0-0-0-0-0-0-0------------|---0--0-0-0-0-0-0-0------------|

|
| Gtr IV
| W +W
 
 |-----------------------------|-------------------------------|
 |-----------------------------|-------------------------------|
 |-10--------------------------|-(10)--------------------------|
 |-12--------------------------|-(12)--------------------------|
 |-----------------------------|-------------------------------|
 |-----------------------------|-------------------------------|
 PM------------|

S S S S S S S S S S E E E E E E E E E E E
 
 |-----------------------------|---------------------||
 |-----------------------------|--------------------o||
 |-----------------------------|---------------------||
 |-----------------------------|-10-8-7----8-7-------||
 |------------------7-8-7-10-7-|--------10-----10-8-o||
 |--8-8-8-8-8-8-8-8------------|---------------------||

|
 
 | PM------------|

| S S S S S S S S S S E E E E E E E E E E E
 
 |-----------------------------|---------------------||
 |-----------------------------|--------------------o||
 |-----------------------------|---------------------||
 |------------------5-7-5--8-5-|--7-5------5---------||
 |-----------------------------|------8--7---8--7-5-o||
 |--8-8-8-8-8-8-8-8------------|---------------------||

|
| W W
 
 |-----------------------------|---------------------||
 |-----------------------------|--------------------o||
 |-19--------------------------|---------------------||
 |-20--------------------------|---------------------||
 |-----------------------------|--------------------o||
 |-----------------------------|---------------------||

Riff E
 
 PM--| PM--| PM--| PM--| PM--| PM--|
 |-3-| |-3-| |-3-| |-3-| |-3-| |-3-|

Q E E E Q E E E Q E E E Q Q Q E E E Q E E E Q E E E Q Q
 
 |---------------------|-------------------|-------------------|----------------|
 |---------------------|-------------------|-------------------|----------------|
 |---------------------|-------------------|-------------------|----------------|
 |---------------------|-----------12--10--|-8--------8--------|-5--------5--7--|
 |-5\--0-0-0-5\--0-0-0-|-5\--0-0-0-12--10--|-8--8-8-8-8--8-8-8-|-5--5-5-5-5--7--|
 |-----0-0-0-----0-0-0-|-----0-0-0-12--10--|-8--8-8-8-8--8-8-8-|-5--5-5-5-5--7--|

|
 
 | PM--| PM--| PM--|
 | |-3-| |-3-| |-3-|

| W H Q Q Q E E E Q E E E Q E E E Q Q
 
 |---------------------|-------------------|-------------------|----------------|
 |---------------------|-------------------|-------------------|----------------|
 |---------------------|-------------------|-------------------|----------------|
 |---------------------|-----------15--14--|-8--------8--------|-5--------5--7--|
 |---------------------|-----------12--10--|-8--8-8-8-8--8-8-8-|-5--5-5-5-5--7--|
 |---------------------|-----------12--10--|-8--8-8-8-8--8-8-8-|-5--5-5-5-5--7--|
 PM--| PM--| PM--|
 |-3-| |-3-| |-3-|

Q E E E Q E E E Q E E E Q Q
 
 |---------------------|-------------------|
 |---------------------|-------------------|
 |---------------------|-------------------|
 |---------------------|-----------12--10--|
 |-5\--0-0-0-5\--0-0-0-|-5\--0-0-0-12--10--|
 |-----0-0-0-----0-0-0-|-----0-0-0-12--10--|

|
 
 | PM--| PM--| PM--|
 | |-3-| |-3-| |-3-|

| Q E E E Q E E E Q E E E Q Q
 
 |---------------------|-------------------|
 |---------------------|-------------------|
 |---------------------|-------------------|
 |---------------------|-----------15--14--|
 |-5\--0-0-0-5\--0-0-0-|-5\--0-0-0-12--10--|
 |-----0-0-0-----0-0-0-|-----0-0-0-12--10--|
 PM--| PM----------------|
 |-3-| |-3-| |-3-| |-3-|

Q E E E Q E E E E E E E E E Q Q
 
 |-------------------|---------------------|
 |-------------------|---------------------|
 |-------------------|---------------------|
 |-8--------8--------|-------------5--7----|
 |-8--8-8-8-8--8-8-8-|-5-5-5-5-5-5-5--7----|
 |-8--8-8-8-8--8-8-8-|-5-5-5-5-5-5-5--7----|

|
 
 | PM--| PM----------------|
 | |-3-| |-3-| |-3-| |-3-|

| Q E E E Q E E E E E E E E E Q Q
 
 |-------------------|---------------------|
 |-------------------|---------------------|
 |-------------------|---------------------|
 |-8--------8--------|-------------5--7----|
 |-8--8-8-8-8--8-8-8-|-5-5-5-5-5-5-5--7----|
 |-8--8-8-8-8--8-8-8-|-5-5-5-5-5-5-5--7----|

Solo I
Gtr I
 
 |-----3-----| |----3-----| |----3-----| |----3-----|

[E] [E] [E] [E] [E] [E] [E] [E] [E] [E] [E] [E] [E] [E] [E] [E] [E] [E] [E] [E] [E] [E] [E] [E]  
 
 |----------------------------|----------------------5-6-8-|
 |----------------------------|-5-------------5-6-8--------|
 |------------------------5-7-|----7-5---5-7---------------|
 |-3--/5-7-8-7-5----5-7-8-----|--------8-------------------|
 |---------------8------------|----------------------------|
 |----------------------------|----------------------------|

|
 
 | |-----3-----| |----3-----| |----3-----| |----3-----|

| E E E E E E E E E E E E E E E E E E E E E E E E
 
 |----------------------------|--------------------------5-|
 |----------------------------|-------------------5--6-8---|
 |----------------------------|-5-------------5-7----------|
 |---------5------------5-7-8-|----8-7-5-7-8---------------|
 |-5---7-8---8-7-5--7-8-------|----------------------------|
 |----------------------------|----------------------------|

|
| Gtr III
 
 | PM--| PM--| PM--|
 | |-3-| |-3-| |-3-|

| Q E E E Q E E E Q E E E Q Q
 
 |----------------------------|----------------------------|
 |----------------------------|----------------------------|
 |----------------------------|----------------------------|
 |----------------------------|--------------12-----10-----|
 |-5\------0-0-0-5\-----0-0-0-|-5\-----0-0-0-12-----10-----|
 |---------0-0-0--------0-0-0-|--------0-0-0-12-----10-----|

~~~
 
 |---------3----------| |-----3------|

Q Q Q Q Q Q Q Q Q H.
 
 |-/15-13---------------------|------------------------|
 |----------15----------------|------------------------|
 |---------------14-----------|------------------------|
 |------------------15---14---|-/17-15---14---15-------|
 |----------------------------|------------------------|
 |----------------------------|------------------------|

|
| ~~~
 
 | |---------3----------| |-----3------|

| Q Q Q Q Q Q Q Q Q H.
 
 |--/6--5---------------------|------------------------|
 |-----------6----------------|------------------------|
 |----------------5-----------|------------------------|
 |-------------------7----5---|--/8--7----5----7-------|
 |----------------------------|------------------------|
 |----------------------------|------------------------|

|
 
 | PM---| PM---| PM---|
 | |-3--| |-3--| |-3--|

| Q E E E Q E E E Q E E E Q Q
 
 |----------------------------|------------------------|
 |----------------------------|------------------------|
 |----------------------------|------------------------|
 |---8------------8-----------|---5------------5---7---|
 |---8----8--8-8--8----8--8-8-|---5----5--5-5--5---7---|
 |---8----8--8-8--8----8--8-8-|---5----5--5-5--5---7---|

TP TP TP TP TP TP TP TP
Q Q Q Q Q Q Q Q
 
 |-------------------------|---------------------|
 |-------------------------|---------------------|
 |-12---14-----15---14-----|-15---17-----15--17--|
 |-------------------------|---------------------|
 |-------------------------|---------------------|
 |-------------------------|---------------------|

|
| TP TP TP TP TP TP TP TP
| Q Q Q Q Q Q Q Q
 
 |-------------------------|---------------------|
 |-------------------------|---------------------|
 |--7----9-----10----9-----|-10---12-----10--12--|
 |-------------------------|---------------------|
 |-------------------------|---------------------|
 |-------------------------|---------------------|

|
 
 | PM--| PM--| PM--|
 | |-3-| |-3-| |-3-|

| Q E E E Q E E E Q E E E Q Q
 
 |-------------------------|---------------------|
 |-------------------------|---------------------|
 |-------------------------|---------------------|
 |-------------------------|-------------12--10--|
 |--5\---0-0-0--5\---0-0-0-|--5\---0-0-0-12--10--|
 |-------0-0-0-------0-0-0-|-------0-0-0-12--10--|

TP TP TP TP ~~
Q Q Q Q W
 
 |-----------------------|-----------------|
 |-----------------------|-----------------|
 |-19--17-----19--21-----|-19--------------|
 |-----------------------|-----------------|
 |-----------------------|-----------------|
 |-----------------------|-----------------|

|
| TP TP TP TP ~~
| Q Q Q Q W
 
 |-----------------------|-----------------|
 |-----------------------|-----------------|
 |-14--12-----14--15-----|-14--------------|
 |-----------------------|-----------------|
 |-----------------------|-----------------|
 |-----------------------|-----------------|

|
 
 | PM--| PM--| PM--|
 | |-3-| |-3-| |-3-|

| Q E E E Q E E E Q E E E Q Q
 
 |-----------------------|-----------------|
 |-----------------------|-----------------|
 |-----------------------|-----------------|
 |--8----------8---------|--5--------5--7--|
 |--8---8-8-8--8---8-8-8-|--5--5-5-5-5--7--|
 |--8---8-8-8--8---8-8-8-|--5--5-5-5-5--7--|

Synth Solo
Gtr V
 
 |----3-----| |----3-----| |----3-----| |----3-----|

[E] [E] [E] [E] [E] [E] [E] [E] [E] [E] [E] [E] [E] [E] [E] [E] [E] [E] [E] [E] [E] [E] [E] [E]  
 
 ||----------------------------|----------------------------|
 ||o---------------------------|----------------------------|
 ||---------7------------7-----|--------7-------------7-----|
 ||-------7---7--------7---7---|------7---7--------7----7---|
 ||o-5--8-------8-5--8-------8-|-5--8-------8--5-8--------8-|
 ||----------------------------|----------------------------|

|
 
 | PM--| PM--| PM--|
 | |-3-| |-3-| |-3-|

| Q E E E Q E E E Q E E E Q Q
 
 ||----------------------------|----------------------------|
 ||o---------------------------|----------------------------|
 ||----------------------------|----------------------------|
 ||----------------------------|--------------12-----10-----|
 ||o-5\-----0-0-0-5\-----0-0-0-|-5\-----0-0-0-12-----10-----|
 ||---------0-0-0--------0-0-0-|--------0-0-0-12-----10-----|

|
 
 | PM--| PM--| PM--|
 | |-3-| |-3-| |-3-|

| Q E E E Q E E E Q E E E Q Q
 
 ||----------------------------|----------------------------|
 ||o---------------------------|----------------------------|
 ||----------------------------|----------------------------|
 ||----------------------------|--------------15-----14-----|
 ||o-5\-----0-0-0-5\-----0-0-0-|-5\-----0-0-0-12-----10-----|
 ||---------0-0-0--------0-0-0-|--------0-0-0-12-----10-----|
 |----3----| |----3----| |------3-------| |------3-------|

[E] [E] [E] [E] [E] [E] [E] [E] [E] [E] [E] [E] [E] [E] [E] [E] [E] [E] [E] [E] [E] [E] [E] [E]  
 
 |-------------------------|-----------------------------------------||
 |-------------------------|----------------------------------------o||
 |-------7-----------7-----|----------12----------------12-----------||
 |-----8---8-------8---8---|-------12----12----------12----12--------||
 |-5-8-------8-5-8-------8-|-10-13----------13-10-13----------13----o||
 |-------------------------|-----------------------------------------||

|
 
 | PM--| PM--| PM---|
 | |-3-| |-3-| |--3--|

| Q E E E Q E E E Q E E E Q Q
 
 |-------------------------|-----------------------------------------||
 |-------------------------|----------------------------------------o||
 |-------------------------|-----------------------------------------||
 |-8-----------8-----------|--5-----------------5--------7-----------||
 |-8-----8-8-8-8-----8-8-8-|--5--------5--5--5--5--------7----------o||
 |-8-----8-8-8-8-----8-8-8-|--5--------5--5--5--5--------7-----------||

|
 
 | PM--| PM--| PM---|
 | |-3-| |-3-| |--3--|

| Q E E E Q E E E Q E E E Q Q
 
 |-------------------------|-----------------------------------------||
 |-------------------------|----------------------------------------o||
 |-------------------------|-----------------------------------------||
 |-8-----------8-----------|--5-----------------5--------7-----------||
 |-8-----8-8-8-8-----8-8-8-|--5--------5--5--5--5--------7----------o||
 |-8-----8-8-8-8-----8-8-8-|--5--------5--5--5--5--------7-----------||

Fill
Gtr I
W +W W W
 
 |----------|------------|----------|------|
 |----------|------------|----------|------|
 |----------|------------|----------|------|
 |-0--------|-(0)--------|-8--------|-5----|
 |-0--------|-(0)--------|-8--------|-5----|
 |-0--------|-(0)--------|-8--------|-5----|

|
| Gtr II
| W +W W W
 
 |----------|------------|----------|------|
 |----------|------------|----------|------|
 |----------|------------|----------|------|
 |-0--------|-(0)--------|-8--------|-5----|
 |-0--------|-(0)--------|-8--------|-5----|
 |-0--------|-(0)--------|-8--------|-5----|

W +W W W
 
 |----------|------------|-----------|------|
 |----------|------------|-----------|------|
 |----------|------------|-----------|------|
 |-3--------|-(3)--------|-10--------|-8----|
 |-0--------|-(0)--------|--8--------|-5----|
 |-0--------|-(0)--------|--8--------|-5----|

|
| W +W W W
 
 |----------|------------|-----------|------|
 |----------|------------|-----------|------|
 |----------|------------|-----------|------|
 |-3--------|-(3)--------|-10--------|-8----|
 |-0--------|-(0)--------|--8--------|-5----|
 |-0--------|-(0)--------|--8--------|-5----|

Riff F
Q=175
PM PM PM PM----| ~
E E E E E E E E E E S S E E E Q W H. Q
 
 |-----------------|------------------|-----------------|----------------------|
 |-----------------|------------------|-----------------|----------------------|
 |-----------------|------------------|-----------------|----------------------|
 |-----------------|------------------|-----------------|----------------------|
 |-3---3-5---3---3-|-6---------3-5-6--|-----------------|----------------------|
 |---0-----0---0---|---0-0-0-0--------|-----------------|-----------------12\--|

|
| PM PM PM PM----| ~~~
| W W E E E E E E E E E E S S E E E Q
 
 |-----------------|------------------|-----------------|----------------------|
 |-----------------|------------------|-----------------|----------------------|
 |-----------------|------------------|-----------------|----------------------|
 |-----------------|------------------|-----------------|----------------------|
 |-----------------|------------------|-6---6-9---6---6-|-10----------6-9-10---|
 |-----------------|------------------|---0-----0---0---|-----0-0-0-0----------|

PM PM PM PM----| ~~
E E E E E E E E E E S S E E E Q
 
 ||------------------|--------------------|
 ||o-----------------|--------------------|
 ||------------------|--------------------|
 ||------------------|--------------------|
 ||o-3---3-5---3---3-|--6---------3-5--6--|
 ||----0-----0---0---|----0-0-0-0---------|

|
| PM PM PM PM----| ~~
| E E E E E E E E E E S S E E E Q
 
 ||------------------|--------------------|
 ||o-----------------|--------------------|
 ||------------------|--------------------|
 ||------------------|--------------------|
 ||o-6---6-9---6---6-|-10---------6-9-10--|
 ||----0-----0---0---|----0-0-0-0---------|

PM PM PM PM----| ~
E E E E E E E E E E S S E E E Q
 
 |-----------------|---------------------||
 |-----------------|--------------------o||
 |-----------------|---------------------||
 |-----------------|---------------------||
 |-3---3-5---3---3-|--6---------3-5-----o||
 |---0-----0---0---|----0-0-0-0-----3----||

|
| PM PM PM PM----| ~
| E E E E E E E E E E S S E E E Q
 
 |-----------------|---------------------||
 |-----------------|--------------------o||
 |-----------------|---------------------||
 |-----------------|---------------------||
 |-6---6-9---6---6-|-10---------6-9-----o||
 |---0-----0---0---|----0-0-0-0-----3----||

Breakdown I
 
 PM------| PM------------|

S S S S E Q S S S S S S E H. E
 
 ||---------------------------|-------------|
 ||o--------------------------|-------------|
 ||---------------------------|-------------|
 ||---------------------------|-------------|
 ||o-0-0-0-0-0----0-0-0-0-0-0-|-0-----------|
 ||--0-0-0-0-0----0-0-0-0-0-0-|-0-----------|

|
 
 | PM------| PM------------|

| S S S S E Q S S S S S S E H. E
 
 ||---------------------------|-------------|
 ||o--------------------------|-------------|
 ||---------------------------|-------------|
 ||---------------------------|-------------|
 ||o-0-0-0-0-0----0-0-0-0-0-0-|-0-----------|
 ||--0-0-0-0-0----0-0-0-0-0-0-|-0-----------|
 PM------| PM------------|

S S S S E Q S S S S S S E H. E
 
 |--------------------------|---------------||
 |--------------------------|--------------o||
 |--------------------------|---------------||
 |--------------------------|---------------||
 |-0-0-0-0-0----0-0-0-0-0-0-|-0------------o||
 |-0-0-0-0-0----0-0-0-0-0-0-|-0-------------||

|
 
 | PM------| PM------------|

| S S S S E Q S S S S S S E H. E
 
 |--------------------------|---------------||
 |--------------------------|--------------o||
 |--------------------------|---------------||
 |--------------------------|---------------||
 |-0-0-0-0-0----0-0-0-0-0-0-|-0------------o||
 |-0-0-0-0-0----0-0-0-0-0-0-|-0-------------||

Fill II
~
H +E Q E W
 
 |------------------------------|-------------|
 |------------------------------|-------------|
 |------------------------------|-------------|
 |------------------------------|-------------|
 |-/5-----------(5)-7-------8---|-7-----------|
 |------------------------------|-------------|

|
 
 | PM------| PM------------|

| S S S S E Q S S S S S S E H. E
 
 |------------------------------|-------------|
 |------------------------------|-------------|
 |------------------------------|-------------|
 |------------------------------|-------------|
 |--0-0-0-0-0-------0-0-0-0-0-0-|-0-----------|
 |--0-0-0-0-0-------0-0-0-0-0-0-|-0-----------|

~~
H +E E E E W
 
 |------------------------------|---------------|
 |------------------------------|---------------|
 |------------------------------|---------------|
 |-/8-----------(8)-7---5-------|---------------|
 |--------------------------8---|--4------------|
 |------------------------------|---------------|

|
 
 | PM------| PM------------|

| S S S S E Q S S S S S S E H Q.
 
 |------------------------------|---------------|
 |------------------------------|---------------|
 |------------------------------|---------------|
 |------------------------------|---------------|
 |--8-8-8-8-8-------8-8-8-8-8-8-|-11------5-----|
 |--8-8-8-8-8-------8-8-8-8-8-8-|-11------5-----|

~~
H +E Q E W
 
 |--------------------------------|--------------|
 |--------------------------------|--------------|
 |--------------------------------|--------------|
 |--------------------------------|--------------|
 |-/5-----------(5)--7--------8---|--7-----------|
 |--------------------------------|--------------|

|
| Gtr II
| ~~
| H +E Q E W
 
 |--------------------------------|--------------|
 |--------------------------------|--------------|
 |--------------------------------|--------------|
 |--------------------------------|--------------|
 |-/8-----------(8)-10-------12---|-10-----------|
 |--------------------------------|--------------|

|
| Gtr III
 
 | PM------| PM-------------|

| S S S S E Q S S S S S S E H. E
 
 |--------------------------------|--------------|
 |--------------------------------|--------------|
 |--------------------------------|--------------|
 |--------------------------------|--------------|
 |--0-0-0-0-0--------0-0-0-0--0-0-|--0-----------|
 |--0-0-0-0-0--------0-0-0-0--0-0-|--0-----------|

~~
H +E E E E W
 
 |-----------------------------------|---------------|
 |-----------------------------------|---------------|
 |-----------------------------------|---------------|
 |--/8------------(8)--7----5--------|---------------|
 |-------------------------------8---|--4------------|
 |-----------------------------------|---------------|

|
| ~~
| H +E E E E W
 
 |-----------------------------------|---------------|
 |-----------------------------------|---------------|
 |-----------------------------------|---------------|
 |-/12-----------(12)-10-------------|---------------|
 |-------------------------13---12---|--7------------|
 |-----------------------------------|---------------|

|
 
 | PM------| PM--------------|

| S S S S E Q S S S S S S E H Q.
 
 |-----------------------------------|---------------|
 |-----------------------------------|---------------|
 |-----------------------------------|---------------|
 |-----------------------------------|---------------|
 |---8-8-8-8-8---------8-8--8-8--8-8-|-11------5-----|
 |---8-8-8-8-8---------8-8--8-8--8-8-|-11------5-----|
 PM------| PM--------|

S S S S E Q S S S S S S E Q Q Q E +E Q Q Q. +W
 
 |--------------------------|--------------|----------------|--------|
 |--------------------------|--------------|----------------|--------|
 |--------------------------|--------------|----------------|--------|
 |--------------------------|-8-7--5-------|----------------|--------|
 |-0-0-0-0-0----0-0-0-0-0-0-|---------8--7-|-(7)-5--4--0----|-(0)----|
 |-0-0-0-0-0----0-0-0-0-0-0-|--------------|----------------|--------|

|
 
 | PM------| PM--------|

| S S S S E Q S S S S S S E Q Q Q E +E Q Q Q. +W
 
 |--------------------------|--------------|----------------|--------|
 |--------------------------|--------------|----------------|--------|
 |--------------------------|--------------|----------------|--------|
 |--------------------------|-5------------|----------------|--------|
 |-0-0-0-0-0----0-0-0-0-0-0-|---8--7--5--4-|-(4)-1--0-------|--------|
 |-0-0-0-0-0----0-0-0-0-0-0-|--------------|-----------2----|-(2)----|

Break
Q=120
+W W
 
 |------------|------|
 |------------|------|
 |------------|------|
 |------------|------|
 |-(0)--------|------|
 |------------|------|

|
| +W W
 
 |------------|------|
 |------------|------|
 |------------|------|
 |------------|------|
 |------------|------|
 |-(2)--------|------|

Breakdown II
 
 PM--------------------| PM--------------|
 |----3----| |-3-|

Q Q Q Q Q Q Q Q Q Q Q Q Q Q Q Q Q Q Q
 
 |--------------|-------------|--------------|---------------------|
 |--------------|-------------|--------------|---------------------|
 |--------------|-------------|--------------|---------------------|
 |--------------|-------------|--------------|---------------------|
 |-4--1--3/--0--|-0-1-2-3-5-4-|-4--1--3/--0--|-0-1-2-5tr8---4tr7---|
 |-4--1--3/--0--|-0-1-2-3-5-4-|-4--1--3/--0--|-0-1-2---------------|

|
 
 | PM--------------------| PM--------------|
 | |----3----| |-3-|

| Q Q Q Q Q Q Q Q Q Q Q Q Q Q Q Q Q Q Q
 
 |--------------|-------------|--------------|---------------------|
 |--------------|-------------|--------------|---------------------|
 |--------------|-------------|--------------|---------------------|
 |--------------|-------------|--------------|---------------------|
 |-4--1--3/--0--|-0-1-2-3-5-4-|-4--1--3/--0--|-0-1-2-8tr12--7tr11--|
 |-4--1--3/--0--|-0-1-2-3-5-4-|-4--1--3/--0--|-0-1-2---------------|

[ Tab from: bttp://www.guitartabs.cc/tabs/t/tbe_faceless/leica_tab.btml ] 
 
 PM--------------------| PM-------------------| ~~~
 |----3----| |-----3------|

Q Q Q Q Q Q Q Q Q Q Q Q Q Q Q Q Q E. E. Q.
 
 |--------------|-------------|--------------|------------------|
 |--------------|-------------|--------------|------------------|
 |--------------|-------------|--------------|------------------|
 |--------------|-------------|--------------|-------------[7]--|
 |-4--1--3/--0--|-0-1-2-3-5-4-|-4--1--3/--0--|-0-1-2-4--5-------|
 |-4--1--3/--0--|-0-1-2-3-5-4-|-4--1--3/--0--|-0-1-2-4--5-------|

|
 
 | PM--------------------| PM-------------------| ~~~
 | |----3----| |-----3------|

| Q Q Q Q Q Q Q Q Q Q Q Q Q Q Q Q Q E. E. Q.
 
 |--------------|-------------|--------------|------------------|
 |--------------|-------------|--------------|------------------|
 |--------------|-------------|--------------|------------------|
 |--------------|-------------|--------------|-------------[7]--|
 |-4--1--3/--0--|-0-1-2-3-5-4-|-4--1--3/--0--|-0-1-2-4--5-------|
 |-4--1--3/--0--|-0-1-2-3-5-4-|-4--1--3/--0--|-0-1-2-4--5-------|
 PM--------------------| PM--------------|
 |----3----| |-3-|

Q Q Q Q Q Q Q Q Q Q Q Q Q Q Q Q Q Q Q
 
 |--------------|-------------|--------------|---------------------|
 |--------------|-------------|--------------|---------------------|
 |--------------|-------------|--------------|---------------------|
 |--------------|-------------|--------------|---------------------|
 |-4--1--3/--0--|-0-1-2-3-5-4-|-4--1--3/--0--|-0-1-2-5tr8---4tr7---|
 |-4--1--3/--0--|-0-1-2-3-5-4-|-4--1--3/--0--|-0-1-2---------------|

|
 
 | PM--------------------| PM--------------|
 | |----3----| |-3-|

| Q Q Q Q Q Q Q Q Q Q Q Q Q Q Q Q Q Q Q
 
 |--------------|-------------|--------------|---------------------|
 |--------------|-------------|--------------|---------------------|
 |--------------|-------------|--------------|---------------------|
 |--------------|-------------|--------------|---------------------|
 |-4--1--3/--0--|-0-1-2-3-5-4-|-4--1--3/--0--|-0-1-2-8tr12--7tr11--|
 |-4--1--3/--0--|-0-1-2-3-5-4-|-4--1--3/--0--|-0-1-2---------------|
 PM--------------------| PM-------------------------|
 |----3----| |------3-------|

Q Q Q Q Q Q Q Q Q Q Q Q Q Q Q Q Q E. E. E. E.
 
 |--------------|-------------|--------------|-------------------|
 |--------------|-------------|--------------|-------------------|
 |--------------|-------------|--------------|-------------------|
 |--------------|-------------|--------------|-------------------|
 |-4--1--3/--0--|-0-1-2-3-5-4-|-4--1--3/--0--|-0-1-2-4--5--6--7--|
 |-4--1--3/--0--|-0-1-2-3-5-4-|-4--1--3/--0--|-0-1-2-4--5--6--7--|

|
 
 | PM--------------------| PM-------------------------|
 | |----3----| |------3-------|

| Q Q Q Q Q Q Q Q Q Q Q Q Q Q Q Q Q E. E. E. E.
 
 |--------------|-------------|--------------|-------------------|
 |--------------|-------------|--------------|-------------------|
 |--------------|-------------|--------------|-------------------|
 |--------------|-------------|--------------|-------------------|
 |-4--1--3/--0--|-0-1-2-3-5-4-|-4--1--3/--0--|-0-1-2-4--5--6--7--|
 |-4--1--3/--0--|-0-1-2-3-5-4-|-4--1--3/--0--|-0-1-2-4--5--6--7--|

Intro Reprise
Q=220
PM--| PM PM PM PM PM--|
S S E E E E E E E E E E E E E Q S S E H. W
 
 |--------------------|----------------|--------------------|------------------|
 |--------------------|----------------|--------------------|------------------|
 |--------------------|----------------|--------------------|------------------|
 |--------------------|----------------|--------------------|------------------|
 |-0-0-0-3----3-5---3-|-6---3---3-5-6--|-0-0-0--------------|------------------|
 |-0-0-0----0-----0---|---0---0--------|-0-0-0--------------|------------------|

|
| PM--| PM--| PM PM PM PM
| S S E H. W S S E E E E E E E E E E E E E Q
 
 |--------------------|----------------|--------------------|------------------|
 |--------------------|----------------|--------------------|------------------|
 |--------------------|----------------|--------------------|------------------|
 |--------------------|----------------|--------------------|------------------|
 |-0-0-0--------------|----------------|-0-0-0-6----6-9---6-|-10---6---6-9-10--|
 |-0-0-0--------------|----------------|-0-0-0----0-----0---|----0---0---------|

PM--| PM PM PM PM PM--| PM PM|
S S E E E E E E E E E E E E E Q S S E E E E E E E E q q Q.
 
 |-------------------|------------------|-------------------|---------------|
 |-------------------|------------------|-------------------|---------------|
 |-------------------|------------------|-------------------|---------------|
 |-------------------|------------------|-------------------|-8-10--3--5----|
 |-0-0-0-3---3-5---3-|--6---3---3-5--6--|-0-0-0-3---3-5-----|-8--8--3--3----|
 |-0-0-0---0-----0---|----0---0---------|-0-0-0---0-----0-0-|-8--7--3--2----|

|
| PM--| PM PM PM PM PM--| PM PM|
| S S E E E E E E E E E E E E E Q S S E E E E E E E E q q Q.
 
 |-------------------|------------------|-------------------|---------------|
 |-------------------|------------------|-------------------|---------------|
 |-------------------|------------------|-------------------|---------------|
 |-------------------|------------------|-------------------|-8-10--3--5----|
 |-0-0-0-6---6-9---6-|-10---6---6-9-10--|-0-0-0-6---6-9-----|-8--8--3--3----|
 |-0-0-0---0-----0---|----0---0---------|-0-0-0---0-----0-0-|-8--7--3--2----|

PM--| PM PM PM PM PM--| PM PM
S S E E E E E E E E E E E E E Q S S E E E E E E E
 
 |-------------------|------------------|-------------------|
 |-------------------|------------------|-------------------|
 |-------------------|------------------|-------------------|
 |-------------------|------------------|-------------------|
 |-0-0-0-3---3-5---3-|--6---3---3-5--6--|-0-0-0-3---3-5-----|
 |-0-0-0---0-----0---|----0---0---------|-0-0-0---0-----0-8-|

|
| PM--| PM PM PM PM PM--| PM PM
| S S E E E E E E E E E E E E E Q S S E E E E E E E
 
 |-------------------|------------------|-------------------|
 |-------------------|------------------|-------------------|
 |-------------------|------------------|-------------------|
 |-------------------|------------------|-------------------|
 |-0-0-0-6

Important: The song above is NOT stored on the Chordie server. The original song is hosted at www.guitartabs.cc. Chordie works as a search engine and provides on-the-fly formatting. Chordie does not index songs against artists'/composers' will. To remove this song please click here.

Text color:
Chord color:
Chord grids: 
Font size:    
Page size: 

Bb5 C5 Eb5 G#5 G/B E
Rate #1 of 3 versions

Jango Player

Login - add to songbook

SHARE PAGE  



You need to log in to post comments