Guitar Tabs, Chords and Lyrics
Server problems seems to be fixed. Chordie has been experiencing problems with songs disappearing. These issues now seems to be fixed, but still verifying the fix. If you find anything strange, please email admin@chordie.com.


Pestilence  The Faceless

As recorded by The Faceless
(From the 2007 Album AKELDAMA)
Transcribed by Eric De La Torre
Words and Music by The Faceless
Arranged by The Faceless
Gtr I (C G C F A D) - 'Guitar I'
Gtr II (C G C F A D) - 'Guitar II'
Gtr III (C G C F A D) - 'Solo Guitar'
Gtr IV (C G C F A D) - 'Synth I'
Intro
Q=140
[4/4] Gtr I
 
 PM------| PM|

S S S S S S S S Q S S S S S S Q. S S S S S S S S
 
 |------------------------------|------------------------------|
 |------------------------------|------------------------------|
 |------------------------------|-------------------------2-/5-|
 |----------------------4-------|----------------4-/7----------|
 |-3-----------3-6-5------5-6-3-|-----5tr6---0-3------3-6------|
 |---4-1-0-1-4------------------|-4-1--------------------------|

|
| Gtr II
| S H E. S S E H S S S S S S S S
 
 |------------------------------|------------------------------|
 |------------------------------|------------------------------|
 |------------------------------|-------------------------2-/5-|
 |-5----------------------------|----------------4-/7----------|
 |-3--------------------4-0-----|------------0-3------3-6------|
 |----------------------4-0-----|------------------------------|
 PM------| PM|

S S S S S S S S Q S S S S S S Q. S S S S S S S S
 
 |----------------------------|-------------------------------|
 |----------------------------|-------------------------------|
 |----------------------------|-------------------------2-/5--|
 |--------------------4-------|----------------4-/7-----------|
 |-3-----------3-6-5----5-6-3-|-----5tr6---0-3------3-6-------|
 |---4-1-0-1-4----------------|-4-1---------------------------|

|
 
 | PM------| PM|

| S S S S S S S S Q S S S S S S Q. S S S S S S S S
 
 |----------------------------|-------------------------------|
 |----------------------------|-------------------------------|
 |----------------------------|-------------------------2-/5--|
 |--------------------4-------|-----4tr5-------4-/7-----------|
 |-3-----------3-6-5----5-6-3-|------------0-3------3-6-------|
 |---4-1-0-1-4----------------|-4-1---------------------------|
 PM------| PM|

S S S S S S S S Q S S S S S S Q. S S S S S S S S
 
 |-----------------------------|------------------------------|
 |-----------------------------|------------------------------|
 |-----------------------------|-------------------------2-/5-|
 |--------------------4--------|----------------4-/7----------|
 |-3-----------3-6-5----5--6-3-|-----5tr6---0-3------3-6------|
 |---4-1-0-1-4-----------------|-4-1--------------------------|

|
 
 | PM------| PM|

| S S S S S S S S Q S S S S S S Q. S S S S S S S S
 
 |-----------------------------|------------------------------|
 |-----------------------------|------------------------------|
 |-----------------------------|------------------------------|
 |---------------5-4--8--------|-----4tr5-------4-/7-----4-/7-|
 |-3-----------3--------9-10-6-|------------0-3------3-6------|
 |---4-1-0-1-4-----------------|-8-5--------------------------|
 PM------| PM|

S S S S S S S S Q S S S S S S Q. S S S S S S S S
 
 |-----------------------------|---------------------------------|
 |-----------------------------|---------------------------------|
 |-----------------------------|--------------------------2-/5---|
 |--------------------4--------|-----------------4-/7------------|
 |-3-----------3-6-5----5--6-3-|-----5tr6----0-3------3-6--------|
 |---4-1-0-1-4-----------------|-4-1-----------------------------|

|
 
 | PM------| PM|

| S S S S S S S S Q S S S S S S Q. S S S S S S S S
 
 |-----------------------------|---------------------------------|
 |-----------------------------|---------------------------------|
 |-----------------------------|---------------------------------|
 |---------------5-4--8--------|-----------------4-/7-----4-/7---|
 |-3-----------3--------9-10-6-|-----9tr10---0-3------3-6--------|
 |---4-1-0-1-4-----------------|-8-5-----------------------------|

Prog Riff
 
 PM| PM------------| PM|
 |----3----|

S S S S S S S S S S S S S S S S S S E E E E S S S S S S S S
 
 |---------------------------------------|-----------------------------|
 |---------------------------------------|-----------------------------|
 |---------------------------------------|-----------------------------|
 |-8------------8------------------------|--------/4-------------------|
 |---9-10-6-------9-10-6-----------------|-/5-1-4-----6-3-5----6-3-5---|
 |----------8-5----------8-5-4-4-4-4-4-4-|----1-4-----------4--------4-|

|
 
 | PM| PM------------| PM|
 | |----3----|

| S S S S S S S S S S S S S S S S S S E E E E S S S S S S S S
 
 |---------------------------------------|-----------------------------|
 |---------------------------------------|-----------------------------|
 |---------------------------------------|-----------------------------|
 |-8------------8------------------------|-----------------------------|
 |---9-10-6-------9-10-6-----------------|----1-4-/6-10-6-9---10-6-9---|
 |----------8-5----------8-5-4-4-4-4-4-4-|-/7-1-4-----------7--------7-|
 PM--------| TPTPTPTP PM
 |----3----|

E E T T T T T T E E E E E Q E H E
 
 |----------------------------|--------------|
 |----------------------------|--------------|
 |----------------------------|--------------|
 |----------------------------|--------------|
 |-5-4-1-1-1-1-1-1-0--6-3-----|-/5--0--------|
 |-5-4-1-1-1-1-1-1-0------5-1-|-----0--------|

|
 
 | PM--------| TPTPTPTP PM
 | |----3----|

| E E T T T T T T E E E E E Q E H E
 
 |----------------------------|--------------|
 |----------------------------|--------------|
 |----------------------------|--------------|
 |----------------------------|--------------|
 |-5-4-1-1-1-1-1-1-0-10-6-----|-/9--0--------|
 |-5-4-1-1-1-1-1-1-0------8-5-|-----0--------|

Best Part
TP TP TP TP TP TP TP TP
Q Q Q E E H H H S S E E E
 
 |------------------|------------|-----------------------|
 |------------------|------------|-----------------------|
 |------------------|------------|-----------------------|
 |------------------|------------|--------4--5--4-----4--|
 |--5------5---3--5-|--6---------|-----------------6-----|
 |-----0------------|-------1----|-/4--------------------|

|
| TP TP TP TP TP TP TP TP
| Q Q Q E E H H H S S E E E
 
 |------------------|------------|-----------------------|
 |------------------|------------|-----------------------|
 |------------------|------------|-----------------------|
 |------------------|------------|-------11-12-11----11--|
 |-12-----12--10-12-|-13---------|----------------13-----|
 |-----0------------|-------1----|-/4--------------------|
 TP TP TP TP TP TP TP PM----------|

H Q E E H H H S S E E E Q E E S S E E E
 
 |----------------|------------|----------------------|-------------------|
 |----------------|------------|----------------------|-------------------|
 |----------------|------------|----------------------|-------------------|
 |----------------|------------|--------4--5--4-----4-|-7\----------------|
 |--5--------3--5-|--6---------|-----------------6----|-5\--0-0-0-0-0-0-0-|
 |-------0--------|-------1----|-/4-------------------|-----0-0-0-0-0-0-0-|

|
 
 | TP TP TP TP TP TP TP PM----------|

| H Q E E H H H S S E E E Q E E S S E E E
 
 |----------------|------------|----------------------|-------------------|
 |----------------|------------|----------------------|-------------------|
 |----------------|------------|----------------------|-------------------|
 |----------------|------------|-------11-12-11----11-|-7\----------------|
 |-12-------10-12-|-13---------|----------------13----|-5\--0-0-0-0-0-0-0-|
 |-------0--------|-------1----|-/4-------------------|-----0-0-0-0-0-0-0-|

Reprise
 
 PM------| PM|

Q E E S S E E E Q Q Q E E Q E E S S E E E
 
 |-------------------|---------------|----------------------|
 |-------------------|---------------|----------------------|
 |-------------------|---------------|----------------------|
 |-7\------------5-7-|-8--8\---------|--------11-12-11-8-11-|
 |-5\--0-0-0-0-0-3-5-|-6--6\--1--1-4-|-4--4-4--9-10--9-6--9-|
 |-----0-0-0-0-0-----|--------1--1-4-|-4--4-4---------------|

|
| W W W
 
 |-------------------|---------------|----------------------|
 |-------------------|---------------|----------------------|
 |-------------------|---------------|----------------------|
 |-0-----------------|-1-------------|-4--------------------|
 |-0-----------------|-1-------------|-4--------------------|
 |-0-----------------|-1-------------|-4--------------------|

|
| Gtr III
| W W W
 
 |-------------------|---------------|----------------------|
 |-------------------|---------------|----------------------|
 |-------------------|---------------|----------------------|
 |-------------------|---------------|----------------------|
 |-------------------|---------------|----------------------|
 |-------------------|---------------|----------------------|
 PM-----------------------|

Q E E S S E S S E
 
 |-------------------------------------------|
 |-------------------------------------------|
 |-------------------------------------------|
 |-7\----------------------------------------|
 |-5\--0-0-0---0-----------0----0------------|
 |-----0-0-0---0-----------0----0------------|

|
 
 | PM-------------------|

| H S S E S S E
 
 |-------------------------------------------|
 |-------------------------------------------|
 |-------------------------------------------|
 |-0-----------------------------------------|
 |-0-------0---0-----------0----0------------|
 |-0-------0---0-----------0----0------------|

|
 
 | |---------------3---------------|

| H S S S S S S S S S S S S
 
 |-----------------------------------8-10-11-|
 |-------------------------8-10---11---------|
 |------------------7-8-10-------------------|
 |---------7-8---10--------------------------|
 |-------------------------------------------|
 |-------------------------------------------|

Solo
 
 PM---------|

Q E E S S E E E Q Q Q E E
 
 |--------------------------|-----------------------------|
 |--------------------------|-----------------------------|
 |--------------------------|-----------------------------|
 |--7\-----------------5--7-|--8---8\---------------------|
 |--5\--0-0---0--0---0-3--5-|--6---6\--1---1-------4------|
 |------0-0---0--0---0------|----------1---1-------4------|

|
 
 | PM---------|

| Q E E S S E E E Q Q Q E E
 
 |--------------------------|-----------------------------|
 |--------------------------|-----------------------------|
 |--------------------------|-----------------------------|
 |--7\-----------------5--7-|--8---8\---------------------|
 |--5\--0-0---0--0---0-3--5-|--6---6\--1---1-------4------|
 |------0-0---0--0---0------|----------1---1-------4------|

|
| ~~~~~~~~~~~~~ ~~~
 
 | |-----3------|

| H +E Q E H. S S S S S S
 
 |-10-------(10)---/15---14-|-11----------11-10-8---------|
 |--------------------------|---------------------11-10-8-|
 |--------------------------|-----------------------------|
 |--------------------------|-----------------------------|
 |--------------------------|-----------------------------|
 |--------------------------|-----------------------------|
 PM| PM-----------|

Q E E S S E E E Q E E S S E E E
 
 |---------------------------------|---------------------------|
 |---------------------------------|---------------------------|
 |---------------------------------|---------------------------|
 |-----------11-12--11-------8--11-|-7\------------------------|
 |-4---4-4----9-10---9-------6---9-|-5\--------0--0-0-0-0-0-0--|
 |-4---4-4-------------------------|-----------0--0-0-0-0-0-0--|

|
 
 | PM| PM-----------|

| Q E E S S E E E Q E E S S E E E
 
 |---------------------------------|---------------------------|
 |---------------------------------|---------------------------|
 |---------------------------------|---------------------------|
 |-----------11-12--11-------8--11-|-7\------------------------|
 |-4---4-4----9-10---9-------6---9-|-5\--------0--0-0-0-0-0-0--|
 |-4---4-4-------------------------|-----------0--0-0-0-0-0-0--|

|
| Q. S S E +E +E E E +E +E E H
 
 |---------------------------------|---------------------------|
 |-7-----7-8-10----(10)b11r(10)--8-|-7--(7)b8r(7)--------------|
 |---------------------------------|--------------8-7----------|
 |---------------------------------|---------------------------|
 |---------------------------------|---------------------------|
 |---------------------------------|---------------------------|
 PM---------------------|

Q E E S S E E E Q Q Q E E
 
 |-------------------------------------------------------------|-----------------------|
 |-------------------------------------------------------------|-----------------------|
 |-------------------------------------------------------------|-----------------------|
 |-7\-------------------------------------------5-------7------|--8--8\----------------|
 |-5\-------------0------0------0----0---0------3-------5------|--6--6\----1------1--4-|
 |----------------0------0------0----0---0---------------------|-----------1------1--4-|

|
 
 | PM---------------------|

| Q E E S S E E E Q Q Q E E
 
 |-------------------------------------------------------------|-----------------------|
 |-------------------------------------------------------------|-----------------------|
 |-------------------------------------------------------------|-----------------------|
 |-7\-------------------------------------------5-------7------|--8--8\----------------|
 |-5\-------------0------0------0----0---0------3-------5------|--6--6\----1------1--4-|
 |----------------0------0------0----0---0---------------------|-----------1------1--4-|

|
 
 | PM-----------------| ~~~~~~~~~~~~
 | |----------------------------3----------------------------|

| S S S S S S S S S S S S S S S S S S S S S S S S H +E Q E
 
 |--------------------------------------------------------8-10-|-11------(11)-/15---14-|
 |------------------------------7---------------7-8-10-11------|-----------------------|
 |---------7-------------7-8-10---10---8-7-8-10----------------|-----------------------|
 |-7--8-10---10-8-7-8-10---------------------------------------|-----------------------|
 |-------------------------------------------------------------|-----------------------|
 |-------------------------------------------------------------|-----------------------|
 PM| PM--------------|

Q E E S S E E E Q E E S S E E E
 
 |------------------------------|-----------------------------------------|
 |------------------------------|-----------------------------------------|
 |------------------------------|-----------------------------------------|
 |----------11-12-11----8----11-|--7\-------------------------------------|
 |---4--4-4--9-10--9----6-----9-|--5\-----------0---0--0--0-0-0--0--------|
 |---4--4-4---------------------|---------------0---0--0--0-0-0--0--------|

|
 
 | PM| PM--------------|

| Q E E S S E E E Q E E S S E E E
 
 |------------------------------|-----------------------------------------|
 |------------------------------|-----------------------------------------|
 |------------------------------|-----------------------------------------|
 |----------11-12-11----8----11-|--7\-------------------------------------|
 |---4--4-4--9-10--9----6-----9-|--5\-----------0---0--0--0-0-0--0--------|
 |---4--4-4---------------------|---------------0---0--0--0-0-0--0--------|

|
 
 | |------3------| |--3--|

| H q q q E +E +E E Q. S S S
 
 |-/18------18-------17---15----|-14--(14)b15r(14)------------------------|
 |------------------------------|------------------16-15------------------|
 |------------------------------|-------------------------------11-12-14--|
 |------------------------------|-----------------------------------------|
 |------------------------------|-----------------------------------------|
 |------------------------------|-----------------------------------------|
 PM--------------------------|

Q E E S S E E E
 
 |------------------------------------------------------------------------|
 |------------------------------------------------------------------------|
 |------------------------------------------------------------------------|
 |--7\------------------------------------------------------5-----7-------|
 |--5\----------------0--------0--------0----0-----0--------3-----5-------|
 |--------------------0--------0--------0----0-----0----------------------|

|
 
 | PM--------------------------|

| Q E E S S E E E
 
 |------------------------------------------------------------------------|
 |------------------------------------------------------------------------|
 |------------------------------------------------------------------------|
 |--7\------------------------------------------------------5-----7-------|
 |--5\----------------0--------0--------0----0-----0--------3-----5-------|
 |--------------------0--------0--------0----0-----0----------------------|

|
| T T T T
 
 | |----------------------------3-----------------------------| |--3--|

| S S S S S S S S S S S S S S S S S S S E S S S
 
 |------------------------------------------------------------------------|
 |---------------------------------------------------------------11h13h15-|
 |-15p14p12p11h12h14-15p14p12p11h12h14-15p14p==12p11h12h14-15p14----------|
 |------------------------------------------------------------------------|
 |------------------------------------------------------------------------|
 |------------------------------------------------------------------------|

Q Q Q E E
 
 |------------------------------------------------------------------------|
 |------------------------------------------------------------------------|
 |------------------------------------------------------------------------|
 |--8-----------------8\--------------------------------------------------|
 |--6-----------------6\----------------1-----------------1-----4---------|
 |--------------------------------------1-----------------1-----4---------|

|
| Q Q Q E E
 
 |------------------------------------------------------------------------|
 |------------------------------------------------------------------------|
 |------------------------------------------------------------------------|
 |--8-----------------8\--------------------------------------------------|
 |--6-----------------6\----------------1-----------------1-----4---------|
 |--------------------------------------1-----------------1-----4---------|

|
| T T T T
 
 | |---------------------------3----------------------------| |--3--|

| S S S S S S S S S S S S S S S S S S S E S S S
 
 |-------------------------------------------------------------10-11-13---|
 |-16p15p13p11h13h15-16p15p13p11h13h15h16-15p13p11h13h15-16p15------------|
 |------------------------------------------------------------------------|
 |------------------------------------------------------------------------|
 |------------------------------------------------------------------------|
 |------------------------------------------------------------------------|
 PM------|

Q E E S S E E E
 
 |-------------------------------------------------------------------------|
 |-------------------------------------------------------------------------|
 |-------------------------------------------------------------------------|
 |-------------------------------------11----12----11--------8----11-------|
 |--4-----------------4--------4--------9----10-----9--------6-----9-------|
 |--4-----------------4--------4-------------------------------------------|

|
 
 | PM------|

| Q E E S S E E E
 
 |-------------------------------------------------------------------------|
 |-------------------------------------------------------------------------|
 |-------------------------------------------------------------------------|
 |-------------------------------------11----12----11--------8----11-------|
 |--4-----------------4--------4--------9----10-----9--------6-----9-------|
 |--4-----------------4--------4-------------------------------------------|

|
| T T T T
 
 | |-----------------------------3-----------------------------| |--3--|

| S S S S S S S S S S S S S S S S S S S E S S S
 
 |-14p13p11p10h11h13-14p13p11p10h11h13-14p13p===11p10h11h13-14p13----------|
 |----------------------------------------------------------------11h13h15-|
 |-------------------------------------------------------------------------|
 |-------------------------------------------------------------------------|
 |-------------------------------------------------------------------------|
 |-------------------------------------------------------------------------|
 PM-------------------|

Q E E S S E E E
 
 |-------------------------------------------|
 |-------------------------------------------|
 |-------------------------------------------|
 |--7\---------------------------------------|
 |--5\---------------0---0---0--0--0---0--0--|
 |-------------------0---0---0--0--0---0--0--|

|
 
 | PM-------------------|

| Q E E S S E E E
 
 |-------------------------------------------|
 |-------------------------------------------|
 |-------------------------------------------|
 |--7\---------------------------------------|
 |--5\---------------0---0---0--0--0---0--0--|
 |-------------------0---0---0--0--0---0--0--|

|
| T
 
 | |-----3-----| |---------3----------|

| S S S S. S. E. E. E. E. E. E.
 
 |-------------------------------------------|
 |-16p15p13p11p10----------------------------|
 |-------------------------------------------|
 |-----------------/12--10-------------------|
 |--------------------------13----12--10--9--|
 |-------------------------------------------|

Fill
 
 PM------|

Q E E S S E E E Q Q Q E E
 
 |-------------------|---------------|
 |-------------------|---------------|
 |-------------------|---------------|
 |-7\------------5-7-|-8--8\---------|
 |-5\--0-0-0-0-0-3-5-|-6--6\--1--1-4-|
 |-----0-0-0-0-0-----|--------1--1-4-|

|
 
 | PM------|

| Q E E S S E E E Q Q Q E E
 
 |-------------------|---------------|
 |-------------------|---------------|
 |-------------------|---------------|
 |-7\------------5-7-|-8--8\---------|
 |-5\--0-0-0-0-0-3-5-|-6--6\--1--1-4-|
 |-----0-0-0-0-0-----|--------1--1-4-|
 PM| PM----------|

Q E E S S E E E Q E E S S E S S E
 
 |----------------------|---------------------|
 |----------------------|---------------------|
 |----------------------|---------------------|
 |--------11-12-11-8-11-|-7\------------------|
 |-4--4-4--9-10--9-6--9-|-5\--0-0-0-0---0-0---|
 |-4--4-4---------------|-----0-0-0-0---0-0---|

|
 
 | PM| PM----------|

| Q E E S S E E E Q E E S S E S S E
 
 |----------------------|---------------------|
 |----------------------|---------------------|
 |----------------------|---------------------|
 |--------11-12-11-8-11-|-7\------------------|
 |-4--4-4--9-10--9-6--9-|-5\--0-0-0-0---0-0---|
 |-4--4-4---------------|-----0-0-0-0---0-0---|

Intro Reprise
 
 PM------|

S S S S S S S S Q S S S S S S Q. S S S S S S S S
 
 |------------------------------|------------------------------|
 |------------------------------|------------------------------|
 |------------------------------|-------------------------2-/5-|
 |----------------------4-------|----------------4-/7----------|
 |-3-----------3-6-5------5-6-3-|-----5tr6---0-3------3-6------|
 |---4-1-0-1-4------------------|-4-1--------------------------|

|
| S H E. S S E H S S S S S S S S
 
 |------------------------------|------------------------------|
 |------------------------------|------------------------------|
 |------------------------------|-------------------------2-/5-|
 |-5----------------------------|----------------4-/7----------|
 |-3--------------------4-0-----|------------0-3------3-6------|
 |----------------------4-0-----|------------------------------|
 PM------|

S S S S S S S S Q S S S S S S Q. S S S S S S S S
 
 |-----------------------------|--------------------------------|
 |-----------------------------|--------------------------------|
 |-----------------------------|-------------------------2-/5---|
 |--------------------4--------|----------------4-/7------------|
 |-3-----------3-6-5----5--6-3-|-----5tr6---0-3------3-6--------|
 |---4-1-0-1-4-----------------|-4-1----------------------------|

|
 
 | PM------| PM|

| S S S S S S S S Q S S S S S S Q. S S S S S S S S
 
 |-----------------------------|--------------------------------|
 |-----------------------------|--------------------------------|
 |-----------------------------|--------------------------------|
 |---------------5-4--8--------|-----4tr5-------4-/7-----4-/7---|
 |-3-----------3--------9-10-6-|------------0-3------3-6--------|
 |---4-1-0-1-4-----------------|-8-5----------------------------|
 PM------| PM|

S S S S S S S S Q S S S S S S Q. S S S S S S S S
 
 |-----------------------------|------------------------------|
 |-----------------------------|------------------------------|
 |-----------------------------|-------------------------2-/5-|
 |--------------------4--------|----------------4-/7----------|
 |-3-----------3-6-5----5--6-3-|-----5tr6---0-3------3-6------|
 |---4-1-0-1-4-----------------|-4-1--------------------------|

|
 
 | PM------| PM|

| S S S S S S S S Q S S S S S S Q. S S S S S S S S
 
 |-----------------------------|------------------------------|
 |-----------------------------|------------------------------|
 |-----------------------------|------------------------------|
 |---------------5-4--8--------|-----4tr5-------4-/7-----4-/7-|
 |-3-----------3--------9-10-6-|------------0-3------3-6------|
 |---4-1-0-1-4-----------------|-8-5--------------------------|
 PM| PM------------| PM|
 |----3----|

S S S S S S S S S S S S S S S S S S E E E E S S S S S S S S
 
 |---------------------------------------|--------------------------------|
 |---------------------------------------|--------------------------------|
 |---------------------------------------|--------------------------------|
 |-8------------8------------------------|--------/4----------------------|
 |---9-10-6-------9-10-6-----------------|-/5-1-4-----6-3-5----6-3-5------|
 |----------8-5----------8-5-4-4-4-4-4-4-|----1-4-----------4--------4----|

|
 
 | PM| PM------------| PM|
 | |----3----|

| S S S S S S S S S S S S S S S S S S E E E E S S S S S S S S
 
 |---------------------------------------|--------------------------------|
 |---------------------------------------|--------------------------------|
 |---------------------------------------|--------------------------------|
 |-8------------8------------------------|--------------------------------|
 |---9-10-6-------9-10-6-----------------|----1-4-/6-10-6-9---10-6-9------|
 |----------8-5----------8-5-4-4-4-4-4-4-|-/7-1-4-----------7--------7----|

Prog Riff II
 
 PM--------| TPTPTPTP
 |----3----|

E E T T T T T T E E E E E
 
 |----------------------------|
 |----------------------------|
 |----------------------------|
 |----------------------------|
 |-5-4-1-1-1-1-1-1-0--6-3-----|
 |-5-4-1-1-1-1-1-1-0------5-1-|

|
 
 | PM--------| TPTPTPTP
 | |----3----|

| E E T T T T T T E E E E E
 
 |----------------------------|
 |----------------------------|
 |----------------------------|
 |----------------------------|
 |-5-4-1-1-1-1-1-1-0-10-6-----|
 |-5-4-1-1-1-1-1-1-0------8-5-|

[3/4]  
 
 PM PM----------------|

Q E E S S S S S S S S S S S S S S S S S S S S
 
 |-------------------------|--------------------------|
 |-------------------------|--------------------------|
 |-------------------------|---------------2-3--------|
 |-------------------------|---------3-4-1-----1------|
 |-/5--0-------------------|---4-0-1------------------|
 |-----0---0-1-3-4-3-1-0-1-|-3-------------------5-4--|

|
 
 | PM PM----------------|

| Q E E S S S S S S S S S S S S S S S S S S S S
 
 |-------------------------|--------------------------|
 |-------------------------|--------------------------|
 |-------------------------|---------------2-3--------|
 |-------------------------|---------3-4-1-----1------|
 |-/9--0-------------------|---4-0-1------------------|
 |-----0---0-1-3-4-3-1-0-1-|-3-------------------5-4--|

Breakdown I
[6/4]  
 
 PM--------------------------------------------|

T T T S S. T T T S S. E T T T S S. T T T S S. E E E
 
 ||------------------------------------------------------|
 ||o-----------------------------------------------------|
 ||------------------------------------------------------|
 ||--5-5-5-5----5-5-5-5----0-4-4-4-4----4-4-4-4----0-5-4-|
 ||o-5-5-5-5----5-5-5-5----0-4-4-4-4----4-4-4-4----0-1-0-|
 ||--5-5-5-5----5-5-5-5----0-4-4-4-4----4-4-4-4----0-1-0-|

|
 
 | PM--------------------------------------------|

| T T T S S. T T T S S. E T T T S S. T T T S S. E E E
 
 ||------------------------------------------------------|
 ||o-----------------------------------------------------|
 ||------------------------------------------------------|
 ||--5-5-5-5----5-5-5-5----0-4-4-4-4----4-4-4-4----0-5-4-|
 ||o-5-5-5-5----5-5-5-5----0-4-4-4-4----4-4-4-4----0-1-0-|
 ||--5-5-5-5----5-5-5-5----0-4-4-4-4----4-4-4-4----0-1-0-|
 PM--------------------------------------------|

T T T S S. T T T S S. E T T T S S. T T T S S. E E E
 
 |---------------------------------------------------------||
 |--------------------------------------------------------o||
 |---------------------------------------------------------||
 |-5-5-5-5----5-5-5-5----0-4-4-4-4----4-4-4-4----0-5-4-----||
 |-5-5-5-5----5-5-5-5----0-4-4-4-4----4-4-4-4----0-1-0----o||
 |-5-5-5-5----5-5-5-5----0-4-4-4-4----4-4-4-4----0-1-0-----||

|
 
 | PM--------------------------------------------|

| T T T S S. T T T S S. E T T T S S. T T T S S. E E E
 
 |---------------------------------------------------------||
 |--------------------------------------------------------o||
 |---------------------------------------------------------||
 |-5-5-5-5----5-5-5-5----0-4-4-4-4----4-4-4-4----0-5-4-----||
 |-5-5-5-5----5-5-5-5----0-4-4-4-4----4-4-4-4----0-1-0----o||
 |-5-5-5-5----5-5-5-5----0-4-4-4-4----4-4-4-4----0-1-0-----||

Singing Part
[4/4]  
 
 PM---| PM-----| PM--------| PM

[E] [E] [B] [E] [E] [E] [E] [E] [E] [E] [E] [E] [E]  
 
 |-------------------------------------|---------------------------------------|
 |-------------------------------------|---------------------------------------|
 |-------------------------------------|---------------------------------------|
 |--------------8----------------------|--------7----------------------5-----4-|
 |--------5----------------------------|--4----------------------1-------------|
 |--5-----------------------------5--4-|--------------4----1--------------0----|

|
 
 | PM---| PM-----| PM--------| PM

| E E H E E E E E E E E E E
 
 |-------------------------------------|---------------------------------------|
 |-------------------------------------|---------------------------------------|
 |-------------------------------------|---------------------------------------|
 |--------------8----------------------|--------7----------------------5-----4-|
 |--------5----------------------------|--4----------------------1-------------|
 |--5-----------------------------5--4-|--------------4----1--------------0----|

|
| Gtr IV
| s s s s s s s s e e e e s s s s s s s s s s e e e
 
 |-------------------------------------|-------------------8-10-11-10-17-15-14-|
 |-------------------------------------|---------------------------------------|
 |-------------------12-14-15-11-14-11-|-14-15-14-11-11------------------------|
 |-12-13-12-10-12-13-------------------|----------------13---------------------|
 |-------------------------------------|---------------------------------------|
 |-------------------------------------|---------------------------------------|
 PM| PM----| PM--| PM

[E] [E] [B] [E] [E] [E] [E] [E] [E] [E] [E] [E] [E]  
 
 |-----------------|---------------------|
 |-----------------|---------------------|
 |-----------------|---------------------|
 |-----8-----------|----7--------5---4---|
 |---5-------------|--4--------1---------|
 |-5-----------5-4-|------4-1------0-----|

|
 
 | PM| PM----| PM--| PM

| E E H E E E E E E E E E E
 
 |-----------------|---------------------|
 |-----------------|---------------------|
 |-----------------|---------------------|
 |-----8-----------|----7--------5---4---|
 |---5-------------|--4--------1---------|
 |-5-----------5-4-|------4-1------0-----|

|
| E E E E E E E E E E E E E E E E
 
 |-----6-------6---|-14-------10---8-----|
 |-----------------|---------------------|
 |-----------------|---------------------|
 |-5---4---5---4---|--4--------4---------|
 |---5---5---5---5-|----5-6-5----5-6-5---|
 |-----------------|---------------------|
 PM| PM----| PM--| PM PM| PM----| PM--| PM

[E] [E] [B] [E] [E] [E] [E] [E] [E] [E] [E] [E] [E] [E] [E] [B] [E] [E] [E] [E] [E] [E] [E] [E] [E] [E]  
 
 |-----------------|-------------------|-----------------|-------------------|
 |-----------------|-------------------|-----------------|-------------------|
 |-----------------|-------------------|-----------------|-------------------|
 |-----8-----------|----7--------5---4-|-----8-----------|----7--------5---4-|
 |---5-------------|--4--------1-------|---5-------------|--4--------1-------|
 |-5-----------5-4-|------4-1------0---|-5-----------5-4-|------4-1------0---|

|
 
 | PM| PM----| PM--| PM PM| PM----| PM--| PM

| E E H E E E E E E E E E E E E H E E E E E E E E E E
 
 |-----------------|-------------------|-----------------|-------------------|
 |-----------------|-------------------|-----------------|-------------------|
 |-----------------|-------------------|-----------------|-------------------|
 |-----8-----------|----7--------5---4-|-----8-----------|----7--------5---4-|
 |---5-------------|--4--------1-------|---5-------------|--4--------1-------|
 |-5-----------5-4-|------4-1------0---|-5-----------5-4-|------4-1------0---|

|
| E E E E E E E E E E E E E E E E E E E E E E E E E E E E E E E E
 
 |-----6-------6---|-14-------10---8---|-----6-------6---|-14-------10---8---|
 |-----------------|-------------------|-----------------|-------------------|
 |-----------------|-------------------|-----------------|-------------------|
 |-5---4---5---4---|--4--------4-------|-5---4---5---4---|--4--------4-------|
 |---5---5---5---5-|----5-6-5----5-6-5-|---5---5---5---5-|----5-6-5----5-6-5-|
 |-----------------|-------------------|-----------------|-------------------|
 PM---------------------------------------------------------------------| PM|

S S S S S S S S S S S S S S S S S S S S S S S S S S S S S S S S
 
 |---------------------------------------------|---------------------------------------------|
 |---------------------------------------------|---------------------------------------------|
 |---------------------------------------------|---------------------------------------------|
 |--------------8--8--------8-8----------------|--------7--7-------------------5-5-------4-4-|
 |--------5--5--------5--5-------5-5-----------|--4--4-------------------1--1----------------|
 |--5--5------------------------------5-5--4-4-|--------------4--4-1--1-------------0-0------|

|
 
 | PM---------------------------------------------------------------------| PM|

| S S S S S S S S S S S S S S S S S S S S S S S S S S S S S S S S
 
 |---------------------------------------------|---------------------------------------------|
 |---------------------------------------------|---------------------------------------------|
 |---------------------------------------------|---------------------------------------------|
 |--------------8--8--------8-8----------------|--------7--7-------------------5-5-------4-4-|
 |--------5--5--------5--5-------5-5-----------|--4--4-------------------1--1----------------|
 |--5--5------------------------------5-5--4-4-|--------------4--4-1--1-------------0-0------|

|
| s s s s s s s s e e e e s s s s s s s s s s e e e
 
 |---------------------------------------------|-------------------8-10-11-10-17---15---14---|
 |---------------------------------------------|---------------------------------------------|
 |-------------------12-14-15---11---14---11---|-14-15-14-11-11------------------------------|
 |-12-13-12-10-12-13---------------------------|----------------13---------------------------|
 |---------------------------------------------|---------------------------------------------|
 |---------------------------------------------|---------------------------------------------|
 PM----------------------------------------------------| PM|

S S S S S S S S S S S S S S S S S S S S S S S S S S S S S S S S
 
 |---------------------------------|--------------------------------------|
 |---------------------------------|--------------------------------------|
 |---------------------------------|--------------------------------------|
 |---------8-8-----8-8-------------|------7-7--------------5-5-----4-4----|
 |-----5-5-----5-5-----5-5---------|--4-4--------------1-1----------------|
 |-5-5---------------------5-5-4-4-|----------4-4-1-1----------0-0--------|

|
 
 | PM----------------------------------------------------| PM|

| S S S S S S S S S S S S S S S S S S S S S S S S S S S S S S S S
 
 |---------------------------------|--------------------------------------|
 |---------------------------------|--------------------------------------|
 |---------------------------------|--------------------------------------|
 |---------8-8-----8-8-------------|------7-7--------------5-5-----4-4----|
 |-----5-5-----5-5-----5-5---------|--4-4--------------1-1----------------|
 |-5-5---------------------5-5-4-4-|----------4-4-1-1----------0-0--------|

|
| E E E E E E E E E E E E E E E E
 
 |---------6---------------6-------|-14---------------10-------8----------|
 |---------------------------------|--------------------------------------|
 |---------------------------------|--------------------------------------|
 |-5-------4-------5-------4-------|--4----------------4------------------|
 |-----5-------5-------5-------5---|------5---6---5--------5---6---5------|
 |---------------------------------|--------------------------------------|
 PM----------------------------------------------------| PM|

S S S S S S S S S S S S S S S S S S S S S S S S S S S S S S S S
 
 |---------------------------------|-----------------------------------|
 |---------------------------------|-----------------------------------|
 |---------------------------------|-----------------------------------|
 |---------8-8-----8-8-------------|------7-7--------------5-5-----4-4-|
 |-----5-5-----5-5-----5-5---------|--4-4--------------1-1-------------|
 |-5-5---------------------5-5-4-4-|----------4-4-1-1----------0-0-----|

|
 
 | PM----------------------------------------------------| PM|

| S S S S S S S S S S S S S S S S S S S S S S S S S S S S S S S S
 
 |---------------------------------|-----------------------------------|
 |---------------------------------|-----------------------------------|
 |---------------------------------|-----------------------3-3-----2-2-|
 |---------8-8-----8-8-------------|------7-7--------------------------|
 |-----5-5-----5-5-----5-5---------|--4-4--------------1-1-------------|
 |-5-5---------------------5-5-4-4-|----------4-4-1-1----------0-0-----|

|
| E E E E E E E E E E E E E E E E
 
 |---------6---------------6-------|-14---------------10-------8-------|
 |---------------------------------|-----------------------------------|
 |---------------------------------|-----------------------------------|
 |-5-------4-------5-------4-------|--4----------------4---------------|
 |-----5-------5-------5-------5---|------5---6---5--------5---6---5---|
 |---------------------------------|-----------------------------------|
 PM----------------------------------------------------| PM|

S S S S S S S S S S S S S S S S S S S S S S S S S S S S S S S S
 
 |---------------------------------|--------------------------------------|
 |---------------------------------|--------------------------------------|
 |---------------------------------|--------------------------------------|
 |---------8-8-----8-8-------------|------7-7--------------5-5-----4-4----|
 |-----5-5-----5-5-----5-5---------|--4-4--------------1-1----------------|
 |-5-5---------------------5-5-4-4-|----------4-4-1-1----------0-0--------|

|
 
 | PM----------------------------------------------------| PM|

| S S S S S S S S S S S S S S S S S S S S S S S S S S S S S S S S
 
 |---------------------------------|--------------------------------------|
 |---------------------------------|--------------------------------------|
 |---------------------------------|-----------------------3-3-----2-2----|
 |---------8-8-----8-8-------------|------7-7-----------------------------|
 |-----5-5-----5-5-----5-5---------|--4-4--------------1-1----------------|
 |-5-5---------------------5-5-4-4-|----------4-4-1-1----------0-0--------|

|
| E E E E E E E E E E E E E E E E
 
 |---------6---------------6-------|-14---------------10-------8----------|
 |---------------------------------|--------------------------------------|
 |---------------------------------|--------------------------------------|
 |-5-------4-------5-------4-------|--4----------------4------------------|
 |-----5-------5-------5-------5---|------5---6---5--------5---6---5------|
 |---------------------------------|--------------------------------------|

Intro Reprise II
 
 PM------| PM|

S S S S S S S S Q S S S S S S Q. S S S S S S S S
 
 |------------------------------|------------------------------|
 |------------------------------|------------------------------|
 |------------------------------|-------------------------2-/5-|
 |----------------------4-------|----------------4-/7----------|
 |-3-----------3-6-5------5-6-3-|-----5tr6---0-3------3-6------|
 |---4-1-0-1-4------------------|-4-1--------------------------|

|
| S H E. S S E H S S S S S S S S
 
 |------------------------------|------------------------------|
 |------------------------------|------------------------------|
 |------------------------------|-------------------------2-/5-|
 |-5----------------------------|----------------4-/7----------|
 |-3--------------------4-0-----|------------0-3------3-6------|
 |----------------------4-0-----|------------------------------|
 PM------| PM|

S S S S S S S S Q S S S S S S Q. S S S S S S S S
 
 |-----------------------------|--------------------------------|
 |-----------------------------|--------------------------------|
 |-----------------------------|-------------------------2-/5---|
 |--------------------4--------|----------------4-/7------------|
 |-3-----------3-6-5----5--6-3-|-----5tr6---0-3------3-6--------|
 |---4-1-0-1-4-----------------|-4-1----------------------------|

|
 
 | PM------| PM|

| S S S S S S S S Q S S S S S S Q. S S S S S S S S
 
 |-----------------------------|--------------------------------|
 |-----------------------------|--------------------------------|
 |-----------------------------|--------------------------------|
 |---------------5-4--8--------|-----4tr5-------4-/7-----4-/7---|
 |-3-----------3--------9-10-6-|------------0-3------3-6--------|
 |---4-1-0-1-4-----------------|-8-5----------------------------|
 PM------| PM|

S S S S S S S S Q S S S S S S Q. S S S S S S S S
 
 |-----------------------------|------------------------------|
 |-----------------------------|------------------------------|
 |-----------------------------|-------------------------2-/5-|
 |--------------------4--------|----------------4-/7----------|
 |-3-----------3-6-5----5--6-3-|-----5tr6---0-3------3-6------|
 |---4-1-0-1-4-----------------|-4-1--------------------------|

|
 
 | PM------| PM|

| S S S S S S S S Q S S S S S S Q. S S S S S S S S
 
 |-----------------------------|------------------------------|
 |-----------------------------|------------------------------|
 |-----------------------------|------------------------------|
 |---------------5-4--8--------|-----4tr5-------4-/7-----4-/7-|
 |-3-----------3--------9-10-6-|------------0-3------3-6------|
 |---4-1-0-1-4-----------------|-8-5--------------------------|
 PM------| PM|

S S S S S S S S Q S S S S S S Q. S S S S S S S S
 
 |-----------------------------|---------------------------------|
 |-----------------------------|---------------------------------|
 |-----------------------------|--------------------------2-/5---|
 |--------------------4--------|-----------------4-/7------------|
 |-3-----------3-6-5----5--6-3-|-----5tr6----0-3------3-6--------|
 |---4-1-0-1-4-----------------|-4-1-----------------------------|

|
 
 | PM------| PM|

| S S S S S S S S Q S S S S S S Q. S S S S S S S S
 
 |-----------------------------|---------------------------------|
 |-----------------------------|---------------------------------|
 |-----------------------------|---

Important: The song above is NOT stored on the Chordie server. The original song is hosted at www.guitartabs.cc. Chordie works as a search engine and provides on-the-fly formatting. Chordie does not index songs against artists'/composers' will. To remove this song please click here.

Text color:
Chord color:
Chord grids: 
Font size:    
Page size: 

B E
Rate #1 of 2 versions

Jango Player

Login - add to songbook

SHARE PAGE  




You need to log in to post comments