Guitar Tabs, Chords and Lyrics
Server problems seems to be fixed. Chordie has been experiencing problems with songs disappearing. These issues now seems to be fixed, but still verifying the fix. If you find anything strange, please email admin@chordie.com.


Sons of Belial  The Faceless

Sons Of Belial
Note: This is just the bass part from the Guitar Pro that was uploaded here.
The Faceless
[Bass]  
 
 F||-------|-------|-------|-------|-------|-------|-------|-------|
 C||-------|-------|-------|-------|-------|-------|-------|-------|
 G||-------|-------|-------|-------|-------|-------|-------|-------|
 C||-------|-------|-------|-------|-------|-------|-------|-------|
 G||-------|-------|-------|-------|-------|-------|-------|-------|

|-3-| |-3-|
Q. S S S S. Q. T E S S S E E E E Q 4x
 
 |----------------------------|-----------------------------||
 |*---------------------------|----------------------------*||
 |----------------------------|-----------------------------||
 |*--4------4-4-4-4-----------|-----4-4-4-4--4--4--4--2----*||
 |----------------------------|-----------------------------||

|-3-| |-3-|
Q. S S S S. Q. T E S S S E E E E Q
 
 ---------------------------|----------------------------|
 ---------------------------|----------------------------|
 ---------------------------|----------------------------|
 --4------4-4-4-4-----------|-----4-4-4-4--4--4--4--2----|
 ---------------------------|----------------------------|

|-3-| |-3-|
Q. S S S S. Q. T E S S S E E E E Q
 
 ---------------------------|----------------------------|
 ---------------------------|----------------------------|
 ---------------------------|----------------------------|
 --4------4-4-4-4-----------|-----4-4-4-4--4--4--4--2----|
 ---------------------------|----------------------------|

|-3-| |-3-|
Q. S S S S. Q. T E S S S E E E E Q
 
 ---------------------------|----------------------------|
 ---------------------------|----------------------------|
 ---------------------------|----------------------------|
 --4------4-4-4-4-----------|-----4-4-4-4--4--4--4--2----|
 ---------------------------|----------------------------|

|-3-| |-3-|
Q. S S S S. Q. T E S S S E E E E Q
 
 ---------------------------|----------------------------|
 ---------------------------|----------------------------|
 ---------------------------|----------------------------|
 --4------4-4-4-4-----------|-----4-4-4-4--4--4--4--2----|
 ---------------------------|----------------------------|

|-3-| |-3-|
Q. S S S S. Q. T E S S S E E E E Q
 
 ---------------------------|----------------------------|
 ---------------------------|----------------------------|
 ---------------------------|----------------------------|
 --4------4-4-4-4-----------|-----4-4-4-4--4--4--4--2----|
 ---------------------------|----------------------------|

|-3-| |-3-|
Q. S S S S. Q. T E S S S E E E E Q
 
 ---------------------------|----------------------------|
 ---------------------------|----------------------------|
 ---------------------------|----------------------------|
 --4------4-4-4-4-----------|-----4-4-4-4--4--4--4--2----|
 ---------------------------|----------------------------|

|-3-| |-3-|
Q. S S S S. Q. T E S S S E E E E Q
 
 ---------------------------|----------------------------|
 ---------------------------|----------------------------|
 ---------------------------|----------------------------|
 --4------4-4-4-4-----------|-----4-4-4-4--4--4--4--2----|
 ---------------------------|----------------------------|

|-3-| |-3-|
Q. S S S S. Q. T E S S S E E E E Q
 
 ---------------------------|----------------------------|
 ---------------------------|----------------------------|
 ---------------------------|----------------------------|
 --4------4-4-4-4-----------|-----4-4-4-4--4--4--4--2----|
 ---------------------------|----------------------------|

Q E Q E Q Q E E E E E E E H E E
 
 --------------------------|-----------------------------|-----------------|
 --------------------------|-----------------------------|-----------------|
 --------------------------|--------------------------5--|-----------5--7--|
 --4-------5----(5)S--8----|--L----L--5--8--11--8--9-----|--5--------------|
 --------------------------|-----------------------------|-----------------|

H Q S S Q S S Q E E E E E E E
 
 ----------------|-----------------------|--------------------|
 ----------------|-----------------------|--------------------|
 ----------------|-----------------------|-----------------5--|
 --8--------L----|--9-9------8-8------4--|--5--7--8--7--8-----|
 ----------------|-----------------------|--------------------|

|-3-| |-3-|
Q. S S S S. Q. T E S S S E E E E Q
 
 ---------------------------|----------------------------|
 ---------------------------|----------------------------|
 ---------------------------|----------------------------|
 --4------4-4-4-4-----------|-----4-4-4-4--4--4--4--2----|
 ---------------------------|----------------------------|

|-3-| |-3-|
Q. S S S S. Q. T E S S S E E E E Q
 
 ---------------------------|----------------------------|
 ---------------------------|----------------------------|
 ---------------------------|----------------------------|
 --4------4-4-4-4-----------|-----4-4-4-4--4--4--4--2----|
 ---------------------------|----------------------------|

|-3-| |-3-|
Q. S S S S. Q. T E S S S E E E E Q
 
 ---------------------------|----------------------------|
 ---------------------------|----------------------------|
 ---------------------------|----------------------------|
 --4------4-4-4-4-----------|-----4-4-4-4--4--4--4--2----|
 ---------------------------|----------------------------|

|-3-| |-3-|
Q. S S S S. Q. T E S S S E E E E Q
 
 ---------------------------|----------------------------|
 ---------------------------|----------------------------|
 ---------------------------|----------------------------|
 --4------4-4-4-4-----------|-----4-4-4-4--4--4--4--2----|
 ---------------------------|----------------------------|

Q E E E E E E E E E E E E E E
 
 -------------------------------|--------------------------------|
 -------------------------------|--------------------------------|
 -------------------------------|--------------------------------|
 --5----(5)--(5)--5--5--(5)--2--|--L--2--(2)--(2)--2--(2)--2--2--|
 -------------------------------|--------------------------------|

Q E E E E E E E E E E E E E E
 
 -------------------------------|----------------------------------|
 -------------------------------|----------------------------------|
 -------------------------------|----------------------------------|
 --5----(5)--(5)--5--(5)--5--6--|--L--9--(6)--(6)--9--(6)--9--(6)--|
 -------------------------------|----------------------------------|

|-3-|
S S S S S S S S S S S S E H E E Q. S S S S. Q. T
 
 ---------------------------------|-----------------|---------------------------|
 ------------12-12----------------|-----------------|---------------------------|
 ------10-10-----------9-9--------|--------------5--|---------------------------|
 --9-9-------------8-8---------4--|--5--------L-----|--4------4-4-4-4-----------|
 ---------------------------------|-----------------|---------------------------|
 |-3-| |----3----| 

E S S S E E E E Q W E E E E Q Q Q
 
 ----------------------------|-------------------|-----------------------------|
 ----------------------------|-------------------|-----------------------------|
 ----------------------------|-------------------|-----------------------------|
 -----4-4-4-4--4--4--4--2----|-------------------|--5--5--5--5--5----4----2----|
 ----------------------------|-------------------|-----------------------------|

[E] [E] [E] [E] [E] [E] [E] [E] [E] [E] [E] [E] [E] [E] [E] [E] [E] [E] [E] [E]  
 
 --------------------------|----------------------------------------|
 --------------------------|--------------9--9----------8--8--------|
 --1--1--------5--5--1--1--|--------------------10--10--------9--9--|
 --------4--4--------------|--9--9--9--9----------------------------|
 --------------------------|----------------------------------------|

E E E E S S E E E E E E E
 
 --------------------------------------------|
 --------------------------------------------|
 --------------9h-10p-9---------9------------|
 --8--8--8--8------------12--9-----12--9--8--|
 --------------------------------------------|

E E E E E E E E E E E E Q Q H
 
 --------------------------------------|----------------------|
 --------------------------------------|----------------------|
 --------------9--9--------------------|--9----10----9--------|
 --5--5--5--5--------5--5--8--8--8--8--|----------------------|
 --------------------------------------|----------------------|

[E] [E] [E] [E] [E] [E] [E] [E] [E] [E] [E] [E] [E] [E] [E] [E] [E] [E] [E] [E]  
 
 ----------------------------|----------------------------------------|
 ----------------------------|--------------9--9----------8--8--------|
 ----------------------------|--------------------10--10--------9--9--|
 --8--8--------11--11--8--8--|--9--9--9--9----------------------------|
 --------9--9----------------|----------------------------------------|

E E E E S S E E E E E E E
 
 --------------------------------------------|
 --------------------------------------------|
 --------------9h-10p-9---------9------------|
 --8--8--8--8------------12--9-----12--9--8--|
 --------------------------------------------|

E E E E E E E E E E E E Q Q Q Q
 
 --------------------------------------|------------------------|
 --------------------------------------|------------------11----|
 --------------9--9--------------------|--9----10----9----------|
 --5--5--5--5--------5--5--8--8--8--8--|------------------------|
 --------------------------------------|------------------------|

Q H. E E E E E E E E E E E E
 
 ----------------------|----------------------------------------|
 --12----11------------|--9--9----------8--8--------------------|
 ----------------------|--------10--10--------9--9--------------|
 ----------------------|----------------------------8--8--8--8--|
 ----------------------|----------------------------------------|

S S E E E E E E E E E E E
 
 --------------------------------------------|
 --------------------------------------------|
 --9h-10p-9---------9------------------------|
 ------------12--9-----12--9--8--5--5--5--5--|
 --------------------------------------------|

E E E E S S E E E E E E E Q. Q. Q H
 
 ---------------------------------------------|------------------------------|
 ---------------------------------------------|----------------8-------------|
 --9--9--------9h-10p-9--7------9--7----------|---------9--------------------|
 --------5--5---------------12--------12--11--|--8------------------8--------|
 ---------------------------------------------|------------------------------|

W. H. E E E E E E E E E E E E
 
 -------------------|---------------|--------------------------------------|
 -------------------|---------------|--------------------------------------|
 -------------------|---------------|--2--2--2--2--2--2--2--2--2--2--2--2--|
 --L----------------|--L------------|--------------------------------------|
 -------------------|---------------|--------------------------------------|

[E] [E] [E] [E] [E] [E] [E] [E] [E] [E] [E] [E] [E] [E] [E] [E] [E] [E] [E] [E] [E] [E] [E] [E]  
 
 --------------------------------------|--------------------------------------|
 --------------------------------------|--------------------------------------|
 --2--2--2--2--2--2--6--6--6--6--6--6--|--6--6--6--6--6--6--6--6--6--6--6--6--|
 --------------------------------------|--------------------------------------|
 --------------------------------------|--------------------------------------|

[E] [E] [E] [E] [E] [E] [E] [E] [E] [E] [E] [E] [E] [E] [E] [E] [E] [E] [E] [E] [E] [E] [E] [E]  
 
 --------------------------------------|--------------------------------------|
 --------------------------------------|--------------------------------------|
 --2--2--2--2--2--2--2--2--2--2--2--2--|--2--2--2--2--2--2--6--6--6--6--6--6--|
 --------------------------------------|--------------------------------------|
 --------------------------------------|--------------------------------------|

E E E E E E E E E E E E E E H E E Q E E
 
 --------------------------------------|----------------------------------|
 --------------------------------------|----------------------------------|
 --6--6--6--6--6--6--6--6--6--6--6--6--|----------------------------7--9--|
 --------------------------------------|--9-----9--------9-----9----------|
 --------------------------------------|----------------------------------|

E H E Q. Q. E E H Q Q Q
 
 ----------------------------------|---------------------------------|
 --9s--11--------L--9--------------|---------------------------------|
 --------------------------12------|--------/6-----------------------|
 ----------------------------------|--1---------------1----1----1----|
 ----------------------------------|---------------------------------|

:S
E E E E Q Q. Q. E E H E E Q E E
 
 ----------------------------------|----------------------------------|
 ----------------------------------|----------------------------------|
 ----------------------------------|----------------------------7--9--|
 --1s--3--3--3--3----4------8------|--9-----9--------9-----9----------|
 ----------------------------------|----------------------------------|

E H E Q. Q. E E H Q Q Q
 
 ----------------------------------|---------------------------------|
 --9s--11--------L--9--------------|---------------------------------|
 --------------------------12------|--------/6-----------------------|
 ----------------------------------|--1---------------1----1----1----|
 ----------------------------------|---------------------------------|

:S
E Q Q. Q. Q. E E H E E Q E E
 
 --------------------------------|----------------------------------|
 --------------------------------|----------------------------------|
 --------------------------------|----------------------------2--2--|
 --1s--3----3------4------8------|--9-----9--------9-----9----------|
 --------------------------------|----------------------------------|

E E E Q. Q. Q. E E H Q Q Q
 
 ---------------------------------|--------------------------------|
 ---------------------------------|--------------------------------|
 --2s--4--4--4------5------6------|--6-----------------------------|
 ---------------------------------|--------1--------1----1----1----|
 ---------------------------------|--------------------------------|

:S
E E E Q. Q. Q. E E H E E Q E E
 
 ---------------------------------|----------------------------------|
 ---------------------------------|----------------------------------|
 ---------------------------------|----------------------------2--2--|
 --1s--3--3--3------4------8------|--9-----9--------9-----9----------|
 ---------------------------------|----------------------------------|

E E E Q. Q. Q. E E H Q Q Q
 
 ---------------------------------|--------------------------------|
 ---------------------------------|--------------------------------|
 --2s--4--4--4------5------6------|--6-----------------------------|
 ---------------------------------|--------1--------1----1----1----|
 ---------------------------------|--------------------------------|

:S
E E E Q. Q. Q. Q. Q. Q. Q.
 
 ---------------------------------|------------------------------|
 ---------------------------------|------------------------------|
 ---------------------------------|--2------4------5------9------|
 --1s--3--3--3------4------8------|------------------------------|
 ---------------------------------|------------------------------|

Q. Q. Q. Q. W W
 
 ------------------------------|--------------------|-------------------|-------|
 ------------------------------|--------------------|-------------------|-------|
 --8------5------4------1------|--------------------|-------------------|-------|
 ------------------------------|--4~----------------|--L----------------|-------|
 ------------------------------|--------------------|-------------------|-------|

E E E E E E E E Q Q Q. S S H
 
 -------|------------------------------------|-----------------------|
 -------|------------------------------------|-----------------------|
 -------|------------------------------------|-----------------------|
 -------|--5--5--5--5--5--5--5--5--5---------|--4------L-4s-8--------|
 -------|------------------------------------|-----------------------|

E E E E E E E E Q Q Q. S S H
 
 ------------------------------------|------------------------|
 ------------------------------------|------------------------|
 ------------------------------------|------------------------|
 --5--5--5--5--5--5--5--5--5---------|--4------L-4s-12--------|
 ------------------------------------|------------------------|

E E E E E E E E Q Q Q. S S H
 
 ------------------------------------|-----------------------|
 ------------------------------------|-----------------------|
 ------------------------------------|-----------------------|
 --5--5--5--5--5--5--5--5--5---------|--4------L-4s-8--------|
 ------------------------------------|-----------------------|

E E E E E E E E Q Q Q. S S H
 
 ------------------------------------|------------------------|
 ------------------------------------|------------------------|
 ------------------------------------|------------------------|
 --5--5--5--5--5--5--5--5--5---------|--4------L-4s-12--------|
 ------------------------------------|------------------------|

[E] [E] [E] [E] [E] [E] [E] [E] [E] [E] [E] [E] [E] [E] [E] [E] [E] [E] [E] [E]  
 
 --------------------------------------|--------------------------|
 --------------------------------------|--------------------------|
 --------------------------------------|--------------------------|
 --5--5--5--5--5--5--5--5--5--5--5--5--|--4--4--4--4--8--8--8--8--|
 --------------------------------------|--------------------------|

[E] [E] [E] [E] [E] [E] [E] [E] [E] [E] [E] [E] [E] [E] [E] [E] [E] [E] [E] [E]  
 
 --------------------------------------|------------------------------|
 --------------------------------------|------------------------------|
 --------------------------------------|------------------------------|
 --5--5--5--5--5--5--5--5--5--5--5--5--|--4--4--4--4--12--12--12--12--|
 --------------------------------------|------------------------------|

Q E E E E E E E E E E E E E E
 
 -------------------------------|--------------------------------|
 -------------------------------|--------------------------------|
 -------------------------------|--------------------------------|
 --5----(5)--(5)--5--5--(5)--2--|--L--2--(2)--(2)--2--(2)--2--2--|
 -------------------------------|--------------------------------|

Q E E E E E E E E E E E E E E
 
 -------------------------------|----------------------------------|
 -------------------------------|----------------------------------|
 -------------------------------|----------------------------------|
 --5----(5)--(5)--5--(5)--5--6--|--L--9--(6)--(6)--9--(6)--9--(6)--|
 -------------------------------|----------------------------------|

S S S S S S S S S S S S E E E E E E E
 
 -----------------------------------|--------------------|
 ------------12-12---------11-11----|--------------------|
 ------10-10-----------9-9----------|-----------------5--|
 --9-9-------------8-8-----------4--|--5--L--L--L--L-----|
 -----------------------------------|--------------------|

[E] [E] [E] [E] [E] [E] [E] [E] [E] [E] [E] [E] [E] [E] [E] [E] [E] [E] [E] [E]  
 
 --------------------------|----------------------------------------|
 --------------------------|--------------9--9----------8--8--------|
 --1--1--------5--5--1--1--|--------------------10--10--------9--9--|
 --------4--4--------------|--9--9--9--9----------------------------|
 --------------------------|----------------------------------------|

E E E E S S E E E E E E E
 
 --------------------------------------------|
 --------------------------------------------|
 --------------9h-10p-9---------9------------|
 --8--8--8--8------------12--9-----12--9--8--|
 --------------------------------------------|

E E E E E E E E E E E E Q Q H
 
 --------------------------------------|----------------------|
 --------------------------------------|----------------------|
 --------------9--9--------------------|--9----10----9--------|
 --5--5--5--5--------5--5--8--8--8--8--|----------------------|
 --------------------------------------|----------------------|

[E] [E] [E] [E] [E] [E] [E] [E] [E] [E] [E] [E] [E] [E] [E] [E] [E] [E] [E] [E]  
 
 ----------------------------|----------------------------------------|
 ----------------------------|--------------9--9----------8--8--------|
 ----------------------------|--------------------10--10--------9--9--|
 --8--8--------11--11--8--8--|--9--9--9--9----------------------------|
 --------9--9----------------|----------------------------------------|

E E E E S S E E E E E E E
 
 --------------------------------------------|
 --------------------------------------------|
 --------------9h-10p-9---------9------------|
 --8--8--8--8------------12--9-----12--9--8--|
 --------------------------------------------|

E E E E E E E E E E E E Q Q Q Q
 
 --------------------------------------|------------------------|
 --------------------------------------|------------------11----|
 --------------9--9--------------------|--9----10----9----------|
 --5--5--5--5--------5--5--8--8--8--8--|------------------------|
 --------------------------------------|------------------------|

Q H. E E E E E E E E E E E E
 
 ----------------------|----------------------------------------|
 --12----11------------|--9--9----------8--8--------------------|
 ----------------------|--------10--10--------9--9--------------|
 ----------------------|----------------------------8--8--8--8--|
 ----------------------|----------------------------------------|

S S E E E E E E E W W
 
 --------------------------------|-------------------|-------------------|
 --------------------------------|-------------------|-------------------|
 --9h-10p-9---------9------------|-------------------|-------------------|
 ------------12--9-----12--9--8--|--5----------------|--L----------------|
 --------------------------------|-------------------|-------------------|

S S E E E E E E E H Q Q W
 
 ---------------------------------|-----------------------|-------------------|
 ---------------------------------|-----------------------|-------------------|
 --9h-10p-9--7------9--7----------|-----------------------|-------------------|
 ---------------12--------12--11--|--11--------L----LS----|--8----------------|
 ---------------------------------|-----------------------|-------------------|

E E E E E E E E W W
 
 ----------------------------|-------------------|--------------------|
 --9--9----------8--8--------|-------------------|--------------------|
 --------10--10--------9--9--|-------------------|--------------------|
 ----------------------------|--9----------------|--12----------------|
 ----------------------------|-------------------|--------------------|

Q. Q. Q W S S E E E E E E E
 
 ---------------------|-------------------|--------------------------------|
 ---------------------|-------------------|--------------------------------|
 ---------------------|-------------------|--9h-10p-9---------9------------|
 --6------6------6----|--2----------------|------------12--9-----12--9--8--|
 ---------------------|-------------------|--------------------------------|

W W S S E E E E E E E
 
 -------------------|-------------------|---------------------------------|
 -------------------|-------------------|---------------------------------|
 -------------------|-------------------|--9h-10p-9--7------9--7----------|
 --5----------------|--L----------------|---------------12--------12--11--|
 -------------------|-------------------|---------------------------------|

Q. Q. Q H H E E E E E E E E
 
 ---------/15------12----|--9br--------9--------|----------------------------|
 ------------------------|----------------------|--9--9----------8--8--------|
 ------------------------|----------------------|--------10--10--------9--9--|
 --8---------------------|----------------------|----------------------------|
 ------------------------|----------------------|----------------------------|

Q. Q. Q H H Q. Q. Q
 
 ----------------------|----------------------|---------------------|
 ----------------11----|--12--------L\--------|---------------------|
 ---------9------------|----------------------|---------7-----------|
 --9-------------------|----------------------|--6-------------9----|
 ----------------------|----------------------|---------------------|

W S S E E E E E E E H Q Q
 
 -------------------|--------------------------------|----------------------|
 -------------------|--------------------------------|----------------------|
 -------------------|--9h-10p-9---------9------------|-----------------5----|
 --2----------------|------------12--9-----12--9--8--|--5~--------L---------|
 -------------------|--------------------------------|----------------------|

W S S E E E E E E E H. Q
 
 -------------------|---------------------------|---------------------|
 --9----------------|--L-L-L--L--L--L--L--L--L--|---------------------|
 -------------------|---------------------------|---------------------|
 -------------------|---------------------------|--8~------------8----|
 -------------------|---------------------------|---------------------|

Q. Q E Q E E E E E E E E
 
 -----------------------------|----------------------------|
 -----------------------------|----------------------------|
 --/12~------10~----9s--7~----|--7--L---L---L--L--L--L--L--|
 -----------------------------|----------------------------|
 -----------------------------|----------------------------|

Q. Q. Q W Q. Q. Q
 
 -------------------------|--------------------|-----------------------|
 -------------------------|--------------------|-----------------------|
 -------------------------|--------------------|--/11------7-----------|
 --12g9------L------11----|--12----------------|------------------9----|
 -------------------------|--------------------|-----------------------|

W W
 
 -------------------|-------------------|-------------------||
 -------------------|-------------------|-------------------||
 -------------------|-------------------|-------------------||
 --2----------------|--5----------------|-------------------||
 -------------------|-------------------|-------------------||

Duration Legend
 
 ---------------

W - whole
H - half
Q - quarter
E - 8th
S - 16th
T - 32nd
X - 64th
. - note dotted
|-n-| - n-tuplets
Tablature Legend
 
 ----------------

L - tied note
x - dead note
g - grace note
(n) - ghost note
> - accentuded note
NH - natural harmonic
AH - artificial harmonic
TH - tapped harmonic
SH - semi harmonic
PH - pitch harmonic
h - hammer on
p - pull off
b - bend
br - bendRelease
pb - preBend
pbr - preBendRelease
brb - bendReleaseBend
\n/ - tremolo bar dip
\n - tremolo bar dive
-/n - tremolo bar Release up
/n\ - tremolo bar inverted dip
/n - tremolo bar return
-\n - tremolo bar Release down
S - shift slide
s - legato slide
/ - slide into from below or out of upwards
\ - slide into from above or out of downwards
~ - vibrato
W - wide vibrato
tr - trill
TP - tremolo picking
T - tapping
S - slap
P - pop
< - fade in
^ - brush up
v - brush down

Important: The song above is NOT stored on the Chordie server. The original song is hosted at www.guitartabs.cc. Chordie works as a search engine and provides on-the-fly formatting. Chordie does not index songs against artists'/composers' will. To remove this song please click here.

Text color:
Chord color:
Chord grids: 
Font size:    
Page size: 

E
Rate #1 of 2 versions

Login - add to songbook

SHARE PAGE  



You need to log in to post comments