Guitar Tabs, Chords and Lyrics
Server problems seems to be fixed. Chordie has been experiencing problems with songs disappearing. These issues now seems to be fixed, but still verifying the fix. If you find anything strange, please email admin@chordie.com.


Love Don't Die  The Fray

Like My Band On Facebook! :)
www.Facebook.com/SkyferdLake
And Check Us Out On Youtube! :)
www.youtube.com/SkyferdLake
Don't Forget Twitter! :)
www.Twitter.com/SkyferdLake
Be on the lookout I'm sure my band will post a cover of this
song relatively soon.
Notes*:
-The verses in this are very "riff-heavy" rather than
a simple chord progression
-Where I put the name of the chord name in the verse is
where beat 1 is, it doesn't necessarily mean you play the chord
but hey play the song however you want if it works for ya.
these tabs are just a reference and the song itself is open
for interpretation.
-If you see a slash ( Chord\ ) after a chord name it usually just
means hold. I'm trying to say the dynamics are softer after that
beat
-If you see an X that just means I mute myself there and make
the least amount of noise possible. Sometimes i'll just hit my
muted strings real hard on the down beat, but DON'T let anything
ring out.
-In the TAB the little b's mean VERY slight bends and the big B's
mean bend to the next note. With little b's you really don't even have
to do them if you either can't or just don't them. VERY few people will
notice.
-All the chords on the chorus switch on beat 1 EXCEPT for
the A(Diminished) you switch to that last chord on beat 3
 
 /----------------------------------------------------------\

| -All the "Riffs" and other melodies and counter-melodies |
|can be found at the end (the bottom) of the tab. |
 
 \----------------------------------------------------------/

-This is my first time using a Mac when I submit a tab and
when you do the submission it's not in Courier New (Font that
is perfect for tabs) so I copied and paste this from a google document
with Courier New. PLEASE let me know if the format is messed up in any way
-All the B5's can totally be Bm's if you want to put a full triad in the chord
In the recording there's actually no chords being played just the riff under the
verses, pre-choruses, and the bridge
 
 |-------------------------------------------------------------|

Chords
Easiest Way | How I Play Live
(Mostly Barre Chords)
Chords - | E A D G B E | E A D G B E |
A - | X 0 2 2 2 0 | 5 7 7 6 5 5 |
A#dim - | X 1 2 3 2(0)| 5 6 7 5 X X |
B5 - | X 2 4 4 X X | 7 9 9 X X X |
Bm - | X 2 4 4 3 2 | 7 9 9 7 7(7)|
G - | 3 2 0 0 3 3 | 3 5 5 4 3 3 |
G5 - | 3 5 5 X X X | 3 5 5 X X X |
D - | X X 0 2 3 2 | X 5 7 7 7(5)|
E5 - | 0 2 2 X X X | 0 2 2 4 X X |
 
 |-------------------------------------------------------------|

Intro: (Riff A)
[B5] [-] [B5]  
Verse 1: (Riff A)
[B5] If I know one thing,[B5] that's true
[B5]It ain't what you say, it's what you [B5]do
[B5] And you don't say much,[B5] yeah, that's true
[B5] But I listen when you [B5]do
Pre-Chorus 1: (Riff B)
[G5] A thousand years go by[E5]
E5 B5 (Back To Riff A)
But love don't die
Verse 2: (Riff A)
[B5] If I know one thing, [B5] that's true
[B5] It's that I'm never leaving [B5]you
[B5] And you don't say much, [B5] yeah, that's true
[B5] But I lose it when you [B5]do
Pre-Chorus 2: (Riff C)
G5 E5 E5 X
Don't let them tell no lie Love don't
Chorus:
[G]Die No matter where we [D]go
[A] Or even if we [Bm]don't
[G] And even if they [D]try
They'll never [A]take my body from your[(A)] side
A#dim B5 (Riff A) B5
Love don't die
Verse 3: (Riff A)
[B5] If there is one thing,[B5] that's true
[B5]It's not what I say, it's what I [B5]do
[B5] And I say too much,[B5] yeah, that's true
[B5] So just listen to what I [B5]do
Pre-Chorus 3:
[G5] A thousand years go by[E5]
E5 X
Mmmm But love don't
Chorus:
[G]Die No matter where we [D]go
[A] Or even if we [Bm]don't
[G] And even if they [D]try
They'll never [A]take my body from your[(A)] side
A#dim B5 (Riff D)
Love don't die
Bridge: (Riff D)
She can [B5]break it up
Shake your [B5]money down
You can [B5]box it in
[B5]Bury it in the ground
You can [B5]close it off and [B5]turn it away
B5 Bm\
Try to keep it down, six feet in the ground
X
But love don't
Chorus:
[G]Die No matter where we [D]go
[A] Or even if we [Bm]don't
[G] And even if they [D]try
They'll never [A]take my body from your[(A)] side
[A#dim]Love don't
Outro:
[G]Die No matter where we [D]go
[A] Or even if we [Bm]don't
[G] And even if they [D]try
They'll never [A]take my body from your[(A)] side
A#dim B5 (Riff A) B5 B5 B5\
Love don't die
 
 |-------------------------------------------------------------|

Riffs Refrence
Intro/Verses (Riff A)
| [B5]1 E + A 2 E + A 3 E + A 4 E + A |
 
 e|---------------------------------|
 B|o-------------------------------o|
 G|---------------------------------|
 D|-----9-------9-------9-----------|
 A|o-------------------------------o|
 E|-7-------7-------7-----5-----6---|

Pre-Chorus 1: (Riff B)
| [G5]1 E + A 2 E + A 3 E + A 4 E + A | [E5]1 E + A 2 E + A 3 E + A 4 E + A |
 
 e|---------------------------------|---------------------------------|
 B|---------------------------------|o-------------------------------o|
 G|---------------------------------|---------------------------------|
 D|-----5-------5-------5-------5---|-----2-------2-------2-0---0-1---|
 A|---------------------------------|o-------------------------------o|
 E|-3-------3-------3-----3---3-----|-0-------0-------0---------------|

Pre-Chorus 2: (Riff C)
G5 E5 E5 X
| 1 E + A 2 E + A 3 E + A 4 E + A | 1 E + A 2 E + A 3 E + A 4 E + A | 1 E + A 2 E + A 3 E + A 4 E + A |
 
 e|---------------------------------|---------------------------------|--------------------------------|
 B|---------------------------------|o--------------------------------|--------------------------------|
 G|---------------------------------|---------------------------------|--------------------------------|
 D|-----5-------5-------5(5)--------|-----2-------2-------2-0---0-1---|-----2-------2-(/9)-----(7)-----|
 A|---------------------------------|o--------------------------------|--------------------------------|
 E|-3-------3-------3-----3---1-2---|-0-------0-------0---------------|-0-------0------(0)-------------|

Love! Don't!
Bridge (Riff D)
| [B5]1 E + A 2 E + A 3 E + A 4 E + A |
 
 e|---------------------------------|
 B|---------------------------------|
 G|-----------------------------7---|
 D|-9---7-------7-9---9-7---9-------|
 A|---------9-----------------------|
 E|---------------------------------|
 |-------------------------------------------------------------|

Other Melodies/Counter Melodies
Second Verse Lead
| [B5]1 E + A 2 E + A 3 E + A 4 E + A | [B5]1 E + A 2 E + A 3 E + A 4 E + A |
 
 e|---------------------------------|---------------------------------|
 B|---------------------------7b----|---------------------------------|
 G|---------------------------7b----|---------------------------------|
 D|-9---9---9---9---9---9-7-9(9)----|-9---9---9---9---9---9-7-9-7-----|
 A|---------------------------------|---------------------------------|
 E|---------------------------------|---------------------------------|

Chorus Guitar Track
| [G]1 E + A 2 E + A 3 E + A 4 E + A | [D]1 E + A 2 E + A 3 E + A 4 E + A |
 
 e|---------------------------------|---------------------------------|
 B|-8---------------8---------------|-7---------------7---------------|
 G|-----7---------------7-----------|-----7---------------7-----------|
 D|---------9---------------9-------|---------7---------------7-------|
 A|---------------------------------|---------------------------------|
 E|---------------------------------|---------------------------------|

| [A]1 E + A 2 E + A 3 E + A 4 E + A | [Bm]1 E + A 2 E + A 3 E + A 4 E + A |
 
 e|---------------------------------|---------------------------------|
 B|-5---------------5---------------|-7---------------7---------------|
 G|-----6---------------6-----------|-----7---------------7-----------|
 D|---------7---------------7-------|---------4---------------4-------|
 A|---------------------------------|---------------------------------|
 E|---------------------------------|---------------------------------|

| [G]1 E + A 2 E + A 3 E + A 4 E + A | [D]1 E + A 2 E + A 3 E + A 4 E + A |
 
 e|---------------------------------|---------------------------------|
 B|-8---------------8---------------|-7---------------7---------------|
 G|-----7---------------7-----------|-----7---------------7-----------|
 D|---------9---------------9-------|---------7---------------7-------|
 A|---------------------------------|---------------------------------|
 E|---------------------------------|---------------------------------|

| [A]1 E + A 2 E + A 3 E + A 4 E + A | [A]1 E + A 2 E + A [A#dim]3 E + A 4 E + A |
 
 e|---------------------------------|----------------(5)--------------|
 B|-5---------------5---------------|-5------------------(4)----------|
 G|-----6---------------6-----------|-----6------------------(2)------|
 D|---------7---------------7-------|---------7-----------------------|
 A|---------------------------------|---------------------------------|
 E|---------------------------------|---------------------------------|

Chorus Back-Up Vocals
| [G]1 E + A 2 E + A 3 E + A 4 E + A | [D]1 E + A 2 E + A 3 E + A 4 E + A |
 
 e|---------------------------------|---------------------------------|
 B|---------------------------------|-----------------12------10------|
 G|---------------------------------|---------------------------------|
 D|---------------------------------|---------12----------------------|
 A|---------------------------------|---------------------------------|
 E|---------------------------------|---------------------------------|

| [A]1 E + A 2 E + A 3 E + A 4 E + A | [Bm]1 E + A 2 E + A 3 E + A 4 E + A |
 
 e|---------------------------------|---------------------------------|
 B|---------------------------------|-----------------12------10------|
 G|---------------------------------|---------------------------------|
 D|---------------------------------|---------12----------------------|
 A|---------------------------------|---------------------------------|
 E|---------------------------------|---------------------------------|

| [G]1 E + A 2 E + A 3 E + A 4 E + A | [D]1 E + A 2 E + A 3 E + A 4 E + A |
 
 e|---------------------------------|---------------------------------|
 B|---------------------------------|-----------------12------10------|
 G|-11------------------------------|---------------------------------|
 D|---------------------------------|---------12----------------------|
 A|---------------------------------|---------------------------------|
 E|---------------------------------|---------------------------------|

| [A]1 E + A 2 E + A 3 E + A 4 E + A | [A]1 E + A 2 E + A [A#dim]3 E + A 4 E + A |
 
 e|---------------------------------|---------------------------------|
 B|---------------------------------|---------------------------------|
 G|---------------------------------|---------------------------------|
 D|---------------------------------|---------------------------------|
 A|---------------------------------|---------------------------------|
 E|---------------------------------|---------------------------------|


Important: The song above is NOT stored on the Chordie server. The original song is hosted at www.guitartabs.cc. Chordie works as a search engine and provides on-the-fly formatting. Chordie does not index songs against artists'/composers' will. To remove this song please click here.

Text color:
Chord color:
Chord grids: 
Font size:    
Page size: 

A A#dim B5 Bm D E5 G G5
Rate #1 of 8 versions

Login - add to songbook

SHARE PAGE  




You need to log in to post comments