Guitar Tabs, Chords and Lyrics
Server problems seems to be fixed. Chordie has been experiencing problems with songs disappearing. These issues now seems to be fixed, but still verifying the fix. If you find anything strange, please email admin@chordie.com.


Molly Makeout  The Friday Night Boys

So there's only one version on this site of this song and its completely off so this is
version. There's a few chords
in here that I have no name for so I'll write those down for you. All relative to the
on the 3rd fret! The rhythm is too
hard to explain, you'll just have to figure it out.
G:
 
 E|--------3---------------|
 B|--------3---------------|
 G|------------------------|
 D|------------------------|
 A|-----2------------------|
 E|--------3---------------|

Cadd9:
 
 E|---------3--------------|
 B|---------3--------------|
 G|------------------------|
 D|-------2----------------|
 A|--------3---------------|
 E|------------------------|

What I call a D/E..........i have no idea what its called so incase a D/E is a real
excuse my ignorance:
 
 E|--------2--------------|
 B|---------3-------------|
 G|-----------------------|
 D|--------2--------------|
 A|-----------------------|
 E|-----------------------|

What I call a E/D#.......don't know what to call this either, but it has a D# in it, so.....yeah:
 
 E|-----------------------|
 B|-----------------------|
 G|------2----------------|
 D|----1------------------|
 A|-----2-----------------|
 E|-----------------------|

otherwise all the chords are normal
Capo 3
Intro Lead Guitar
 
 e|---8---------6--------4--------------------------|
 B|----9---------8--------6-------4p3---------------|
 G|------3---------3--------3-----------------------|
 D|-------3---------3--------3---------------| X 5-|
 A|-------------------------------------------------|
 E|-------------------------------------------------|

Intro Rhythm Guitar: Starts on the Second Time Around
[G] [Cadd9] [D] [F] [G] [Cadd9] [Am] [C] 
[G]Let me tell you about th[Cadd9]is girl I know
[D]Molly makeout wh[F]oa oh oh
[G]Look up and down
[Cadd9]Its rising action
[Am]Molly makeout sat[C]isfaction
[D]Easy to please, get on your knees
[Cadd9]Your wasting time
( Tab from: http://www.guitartabs.cc/tabs/t/the_friday_night_boys/molly_makeout_tab.html )
[G]Molly Molly makeout
[D/E]Molly Molly makeout
[Cadd9]Any time, any guy oh oh
[Em]Just watch your [D]back
[D]You wont [D/E]know what to do
[Cadd9]Molly might makeout with you
[G] [Cadd9] [Am] [F]  
[G]She was lost but [Cadd9]now she's found
[Am]I'll tell you what [F]she's thinking now
[G]She thinks she's got[Cadd9] all the power
[Am]Now for ninety five 2 hours
[D]She's easy to please
She'll get on her knees
[Asus4]You're wast[Cadd9]ing time your begging for this
[D]But you're not, oh your not, gett[Em]ing much furthe[Cadd9]r tonight
[Cadd9]This is why they call her
[G]Molly Molly makeout
[D/E]Molly Molly makeout
[Cadd9]Any time, any guy oh oh
[Em]Just watch your ba[D]ck
[D]You wont k[D/E]now what to do
Cadd9 (let it ring)
Molly my makeout with you
[E]Molly make out you lie t[D]oo much
[D]Said your lips no boy co[Cadd9]uld touch
[Cadd9]If making out just what y[E/D#]ou do
[E/D#]Then Molly Makeout's the girl[Em] for you
[Em] [Cadd9]  
[G]Molly Molly makeout[D/E]
[Cadd9]Any time, any guy
[Em]Just watch your back[D]
[D]You wont know what t[D/E]o do
[Cadd9]Molly my makeout with you
[G]Molly Molly makeout
[D/E]Molly Molly makeout
[Cadd9]Any time, any guy oh oh
[Em]Just watch your ba[D]ck
[D]You wont k[D/E]now what to do
[Cadd9]Molly my makeout with you
[Cadd9]Molly my makeout with you
[G]Oh oh whoa oh oh [Cadd9]oh whoa oh
[Am]Oh oh whoa oh oh oh who[F]a oh
(Molly my make out with you)
[G]Oh oh whoa oh oh[Cadd9] oh whoa oh
Am C (let ring)
Oh whoa oh oh ohhhhhhh

Important: The song above is NOT stored on the Chordie server. The original song is hosted at www.guitartabs.cc. Chordie works as a search engine and provides on-the-fly formatting. Chordie does not index songs against artists'/composers' will. To remove this song please click here.

Text color:
Chord color:
Chord grids: 
Font size:    
Page size: 

Am Asus4 C Cadd9 D D/E E Em F G
Rate #1 of 5 versions

Jango Player

Login - add to songbook

SHARE PAGE  




You need to log in to post comments