Guitar Tabs, Chords and Lyrics
Server problems seems to be fixed. Chordie has been experiencing problems with songs disappearing. These issues now seems to be fixed, but still verifying the fix. If you find anything strange, please email admin@chordie.com.


Flashlight   The Front Bottoms

 
 e [----------------------------------------------------------------|
 B [----------------------------------------------------------------|
 G [----------------------------------------------------------------|
 D [--7----9----7---------------------------------------------------| x4
 A [--9----7----5----7----4----7----7-------------------------------|
 E [-----------------5----2----4----5-------------------------------|

 


 ..Please fall asleep so I can take pictures of you and hang them in my room...


 


 Pre-chorus


 

 
 e [---------------------------------------------------------------|
 B [---------------------------------------------------------------|
 G [---------------------------------------------------------------|
 D [----------------------------------7----------------------------|
 A [--7---7---2---7---7---7---2---7---5----------------------------|
 E [--5---4---4---4---5---4---4---4--------------------------------|

 


 ...And it goes in in out through the mouth - breathing exercises I will never figure out...


 


 Chorus


 

 
 e [---------------------------------------------------------------|
 B [---------------------------------------------------------------|
 G [---------------------------------------------------------------|
 D [--------------7---------------7--------------------------------|
 A [--4---2---7---5---4---2---7---5--------------------------------|
 E [--2---0---5-------2---0---5------------------------------------|

 


 ...And I can hear your dog whistle from my bedroom yeah yeah *break*..


 


 Verse


 

 
 e [----------------------------------------------------------------|
 B [----------------------------------------------------------------|
 G [----------------------------------------------------------------|
 D [--7----9----7---------------------------------------------------| x5
 A [--9----7----5----7----4----7----7-------------------------------|
 E [-----------------5----2----4----5-------------------------------|

 


 ....She's says a lot of the kids we graduated with are now homeless...


 [ Tab from: bttp://www.guitartabs.cc/tabs/t/tbe_front_bottoms/flasbligbt_tab_ver_3.btml ] 


 Pre-Chorus


 

 
 e [----------------------------------------------------------------|
 B [----------------------------------------------------------------|
 G [----------------------------------------------------------------|
 D [--------------------------------------7---7---------------------|
 A [--7---7---2---7---7---7---7---2---7---5---5---------------------|
 E [--5---4---4---4---5---5---4---4---4-----------------------------|

 


 ... and i can smell plastic burning, i can smell chemicals breaking down...


 


 Chorus


 

 
 e [---------------------------------------------------------------|
 B [---------------------------------------------------------------|
 G [---------------------------------------------------------------|
 D [--------------7---------------7--------------------------------|
 A [--4---2---7---5---4---2---7---5--------------------------------|
 E [--2---0---5-------2---0---5------------------------------------|

 


 ...and he will be able to hear her dog whistle...


 


 Post-chorus (fast strumming)


 

 
 e [---------------------------------------------------------------|
 B [---------------------------------------------------------------|
 G [---------------------------------------------------------------|
 D [------7--------------------------------------------------------|
 A [--4---5---7---7------------------------------------------------|
 E [--2-------5---5------------------------------------------------|

 


 ..And I will read the flashing, like a Morse code explanation, that will mean nothing


 but take all night to figure out, out, out... *BREAK*


 


 Verse / end (over lapping singing)


 

 
 e [----------------------------------------------------------------|
 B [----------------------------------------------------------------|
 G [----------------------------------------------------------------|
 D [--7----9----7---------------------------------------------------|
 A [--9----7----5----7----4----7----7-------------------------------|
 E [-----------------5----2----4----5-------------------------------|


Important: The song above is NOT stored on the Chordie server. The original song is hosted at www.guitartabs.cc. Chordie works as a search engine and provides on-the-fly formatting. Chordie does not index songs against artists'/composers' will. To remove this song please click here.

This song is displayed as text-only. Transposing and tuning is only available for chordpro-songs.
Rate #3 of 6 versions

Jango Player

Login - add to songbook

SHARE PAGE  




You need to log in to post comments