Guitar Tabs, Chords and Lyrics
Server problems seems to be fixed. Chordie has been experiencing problems with songs disappearing. These issues now seems to be fixed, but still verifying the fix. If you find anything strange, please email admin@chordie.com.


Peach  The Front Bottoms

Song: Peach
Album: Talon of The Hawk
Label: Bar/None Records
Tabbed by ear from: http://www.youtube.com/watch?v=jIRznt1CFiM
Chords used, didn't bother being proper; just simple.
 
 e|----------------------|
 B|----------------------|
 G|--------5--7--9--4----|
 D|--5--7--5--7--9--4----|
 A|--5--7--3--5--7--2----|
 E|--3--5----------------|

[G] [A] [C] [D] [E] [B]  
INTRO RIFF
x3 x1
 
 e|------------------|----------|
 B|------------------|----------|
 G|------------------|----------|
 D|---5-7-5----5-7---|---5-7-5--|
 A|-7--------7-----5-|-7--------|
 E|------------------|----------|

INTRO CHORDS: G A C D x1
You are my [G]peach, you are my [A]plum
You are my [C]earth, you are my [D]sun
I love your [G]fingers, I love your [A]toes
The back of your [C]head, the tip of your [D]nose
And [C]you are the reason I'm [A]smiling when there is [G]nothing to smile [D]about
Yeah, [C]you are the reason I'm [A]smiling when there is [G]nothing to smile [D]about
One day you will [E]find someone who will [A]love you like you [C]deserve
But tonight I'm the [E]only one left and I'm [A]betting it's a fact that [C]you will never learn
Once I sink my [E]teeth[A], your skin's not so[C] tough
I'll leave a [B]tiny [C]cut, there'll be a [B]lot of [C]blood
But once you [B]wipe it [C]up you will feel [A]better about our en[C]tire situation
G A C D x1
( Tab from: http://www.guitartabs.cc/tabs/t/the_front_bottoms/peach_crd.html )
You are my [G]light, no need to [A]hide
You are my [C]clock, keep me on [D]time
You are my [G]angel, you are my [A]crime
I'll serve this [C]sentence the rest of [D]my life
And [C]you are the reason I'm [A]smiling when there is [G]nothing to smile a[D]bout
Yeah, [C]you are the reason I'm [A]smiling when there is [G]nothing to smile a[D]bout
I do things [E]wrong[A], you thought I [C]might
You say I'm gonna [E]miss you when you [A]leave and you are probably [C]right
But I'm just as [E]stoned[A], I don't wanna [C]fight
You say I should [B]think before I [C]talk, you say I shouldn't [B]think about my [C]life
Cause once I [B]finally hit the [C]ground, who's gonna [B]drag me into the [C]light?
It's just so [A]hard to see [C]tomorrow past [E]tonight, [D]woah
It's just so [A]hard to see [C]tomorrow past [E]tonight, [D]woah
ENDING CHORDS
G A C D x2
Ending strum pattern
 
 e|-------------------|
 B|-------------------|
 G|-7|-77|-7----------|
 D|-7|-77|-7-7-5~-----|
 A|-5|-55|-5-7-5~-----|
 E|----------5-3~-----|

^ ^
|=Full Stop
Ending Keyboard? Solo END ON V
 
 e|------------------------------------------------------------------------|
 B|------------------------------------------------------------------------|
 G|-5/7-777----------5/7-777--------5/7-777----------5/7-777---------------|
 D|--------9-7-9-7-5--------9-7-9-7--------9-7-9-7-5--------9-7-9-7-9-7-5~-|
 A|------------------------------------------------------------------------|
 E|------------------------------------------------------------------------|


Important: The song above is NOT stored on the Chordie server. The original song is hosted at www.guitartabs.cc. Chordie works as a search engine and provides on-the-fly formatting. Chordie does not index songs against artists'/composers' will. To remove this song please click here.

Text color:
Chord color:
Chord grids: 
Font size:    
Page size: 

A B C D E G
Rate #2 of 5 versions

Jango Player

Login - add to songbook

SHARE PAGE  



You need to log in to post comments