Guitar Tabs, Chords and Lyrics
Server problems seems to be fixed. Chordie has been experiencing problems with songs disappearing. These issues now seems to be fixed, but still verifying the fix. If you find anything strange, please email admin@chordie.com.


Film Noir  The Gaslight Anthem

Intro:
 
 e|---------------------------------------------------------|
 B|-------------------6-------------------------6-----------|
 G|---------------5-7---7~---7-5-5------------7---5---------|
 D|--5/7~~----5-7------------------7~~----5-7-------8~~-----|
 A|---------------------------------------------------------|
 E|---------------------------------------------------------|

When Brian starts to sing, you can here the same notes once again in the beginning of
every new verse.
 
 e|---------------------------------------------------------|
 B|-------------------6-------------------------6-------6---|
 G|---------------5-7---7~---7-5-5------------7---5-------5-|
 D|--5/7~~----5-7------------------7~~----5-7--------8~-----|
 A|---------------------------------------------------------|
 E|---------------------------------------------------------|

I[Dm]'m all washed out by the side of the road
B[Bb]roken bones, Matilda left a note and a rose
Saying [Dm]"Baby, honey child, I love you so long but you [Bb]deserve much better
than m[F]e
So I'm just [Dm]burning all around, all the [Dm]miles on the road
And I'm ne[Bb]ver going back, and I'm nev[Bb]er going home
I've been [Dm]gone too long, I've been le[Dm]ss right than wrong
I've lost s[Bb]o much blood in the fall[F]ing out[C] [C] [C]
And I lit a [F]fire that wouldn't go out
Until it con[Bb]sumed the walls and roof of this house
Until all I [F]remember was burning away
And all I re[Bb]member, you burnt it a[C]way[Dm] [Dm] [Dm]
See for [Dm]10 long years I've been [Dm]hustling around
Trying to [Bb]wash the sins and sweat f[Bb]rom my brow
Just tryin[Dm]g to find a better life for [Dm]me and my own
Just some r[Bb]est for these tired working fi[F]ngers
But [Dm]nobody never gonna tell you[Dm] the way
You gotta [Bb]figure it out boys and s[Bb]uffer the rain
And the f[Dm]ools in the night, and the h[Dm]eat in the day
When all you [Bb]ever really wanted[F] was someone to u[Bb]nderstand[C] [C] [C]
Repeat same chours again, and then it's the same until
And your sugar and s[Dm]pice, and everything nic[F]e
You got Monroe hi[Bb]ps, your poison lips and eye[F]s
And your sugar and [Dm]spice, and everything ni[F]ce
You got open woun[Bb]ds in a young boy's prid[F]e 2x
And I lit a [F]fire that wouldn't go out
Until it con[Bb]sumed the walls and roof of this house
Until all I [F]remember was burning away
And all I re[Bb]member, you burnt it a[C]way[Dm] [Dm] [Dm]
Well don't you take it so[F] hard and baby don't you cry.
Cross your hard[Bb] heart and hope to die.
Don't you tell me no[F] more lies, you lied all the time.
Don't you tell me no [Bb]more lies, you lied every ni[C]ght.

Important: The song above is NOT stored on the Chordie server. The original song is hosted at www.guitartabs.cc. Chordie works as a search engine and provides on-the-fly formatting. Chordie does not index songs against artists'/composers' will. To remove this song please click here.

Text color:
Chord color:
Chord grids: 
Font size:    
Page size: 

Bb C Dm F
Rate #1 of 6 versions

Jango Player

Login - add to songbook

SHARE PAGE  




You need to log in to post comments