Guitar Tabs, Chords and Lyrics
Server problems seems to be fixed. Chordie has been experiencing problems with songs disappearing. These issues now seems to be fixed, but still verifying the fix. If you find anything strange, please email admin@chordie.com.


Always Where I Need to Be  The Kooks

The Kooks - Always Where I Need To Be
tabbed by dcfc_rules
I noticed that all the tabs here are either wrong, or for the accoustic or old version
this song. This tab is for the album and single version. Thanks to the other guys who
the old version, helped me change the key and add the riffs in this one. not 100% on the solo.
Intro:
B C#m G#m E x3
Verse:(no guitar, just bass for first bit)
[B]She don't know [C#m]who she is,
[Gm]Oh,I can take [E]her anywhere,
[B]Do whatever [C#m]comes naturally to you,
[G#m]You know she just [E]don't care,
You know she just [B]don't care,
Chorus
[E]'Cause I'm always where,
[G#m]I need to be,
[E]And I always thought,
[G#m]I would end up with you eventually,
Break:
[B]do do do do do do do [C#m]do,
[G#m]do do do do do do do [E]do x2
 
 e|--7-6-4-------------|
 B|--------7-5-4-5-4---|
 G|--------------------|
 D|--------------------|
 A|--------------------|
 E|--------------------|

Verse 2:
[B]Now I see her [C#m]again,
[G#m]I have to be a [E]hummingbird,
[B]Whisper words in [C#m]her ear,
[G#m]Oh, You know I just [E]don't care,
You [B]know she just don't care,
Chorus:
[E]'Cause I'm always where,
[G#m]I need to be,
[E]And I always thought,
[G#m]I would end up with you eventually,
Break:
[B]do do do do do do do [C#m]do,
[G#m]do do do do do do do [E]do x2
 
 e|--7-6-4-------------|
 B|--------7-5-4-5-4---|
 G|--------------------|
 D|--------------------|
 A|--------------------|
 E|--------------------|

Solo:
 
 e|---------4------4-----------------------------------9--11-11h12p11-9--11--|
 B|-4-5-4-5---7-7----7-4---4--------------------7-77-7-----------------------|
 G|----------------------6---6-6b(8)r6-4-6-8-8-------------------------------|
 D|--------------------------------------------------------------------------|
 A|--------------------------------------------------------------------------|
 E|--------------------------------------------------------------------------|
 e|--16-14-------------16-14-------------------------|
 B|--------16-14-12----------16-14-12-----16-14-12---|
 G|-----------------13----------------13-------------|
 D|--------------------------------------------------|
 A|--------------------------------------------------|
 E|--------------------------------------------------|

Chords in solo:
[B] [C#m] [G#m] [E]  
[B] [C#m] [G#m] [G#m]  
Break:
[E]Oh I'm a man I'm a man
[G#m]Oh I'm a man on the scene,
[E]I'm a man and I can [G#m]be so obscene,
[E]'Cause I always think I know [G#m]how to be,
[E]But I always thought I would end [G#m]up with you eventually,
[B]do do do do do do do [C#m]do,
[G#m]do do do do do do do [E]do x2
[B]Oh I'm a man I'm a m[C#m]an I
[G#m]Oh I'm a man on the [E]scene,
[B]I'm a man [C#m]and I can [G#m]be so obscen[E]e,
end on B
___________________________________________________
i'm pretty sure thats all right
a bit unsure on a few bits of the solo
but the notes are there i'm pretty sure
enjoy!

Important: The song above is NOT stored on the Chordie server. The original song is hosted at www.guitartabs.cc. Chordie works as a search engine and provides on-the-fly formatting. Chordie does not index songs against artists'/composers' will. To remove this song please click here.

Text color:
Chord color:
Chord grids: 
Font size:    
Page size: 

B C#m E G#m Gm
Rate #1 of 17 versions

Login - add to songbook

SHARE PAGE  



You need to log in to post comments