Guitar Tabs, Chords and Lyrics
Server problems seems to be fixed. Chordie has been experiencing problems with songs disappearing. These issues now seems to be fixed, but still verifying the fix. If you find anything strange, please email admin@chordie.com.


Alright  The Koolaid Electric Company

SONG: Alright
ARTIST: The Koolaid Electric Company
Song (key) is in C#
Main Chords Used:
C#: [E]09-[A]11-[D]11-[G]10-[B]09-[E]09
F#: 09-09-11-11-11-09
Main Slide Guitar Riff (Standard Tuning)
 
 e|-14--/12-----9~~~~~------------------|
 B|---------------9~~~------------------|
 G|---------------------------9~~~~~----|
 D|----------------------7/9~~~~~~~~----|
 A|-------------------------------------|
 E|-------------------------------------|

CHORDS & LYRICS:
Written by S. Barrett
I [C#]think I'll turn my [F#]life around
Cause I [C#]feel myself falling [F#]down
And I'll[C#] pick up the pieces that [F#]you have left be[C#]hind
The [C#]space is only full of [F#]doubt
Now I'm [C#]gonna have to live wit[F#]hout
All the [C#]pieces of you, the [F#]pieces that gave me [C#]life
[C#]Now I have to [F#]say that I'm [C#]alright
You don't know where I'm going
I'll see what I wanna see
I live alone in my mind but alone I'll never be
I can't forget your name
As it turns my head around
I wish that I could say that I never let you down
Now I have to say that I'm alright
THE END
Slide Guitar Lick From Solo (Standard Tuning)
 
 e|------------------------------------------|
 B|------------------------------------------|
 G|--------13-13/11~~~~-------13-13/11~~~~---|
 D|---9/11----------------9/11---------------|
 A|------------------------------------------|
 E|------------------------------------------|


Important: The song above is NOT stored on the Chordie server. The original song is hosted at www.guitartabs.cc. Chordie works as a search engine and provides on-the-fly formatting. Chordie does not index songs against artists'/composers' will. To remove this song please click here.

Text color:
Chord color:
Chord grids: 
Font size:    
Page size: 

A B C# D E F# G
Rate #1 of 1 versions

Jango Player

Login - add to songbook

SHARE PAGE  




You need to log in to post comments