Guitar Tabs, Chords and Lyrics
Major upgrade!! After one year development the new version of Chordie is now online! Please give feedback.


Blood on Your Hands  The Living End

-THE LIVING END-
Blood On Your Hands
Tabbed By Michael Fryar-manumick20@yahoo.com
Okay all, I worked out this song the other night and while I`m writting this I dont have a
recording of the song cause I lost the tape (duh mick) so I pretty much put all these parts
from memory.At this time it`s the 19th so I`ll get the album tommorrow and if I notice that I
have majorly f*$#!d up this tab,I`ll do another copy and send it in.
The only bit Im worried about is the outro and the last bit of the bridge. I did them
from memory cause that was the only bit that I didn`t work out the other night.
Well anyway....Enjoy!
 
 - - - - - - - - - - - - - - - - - - - - - - - - - - - - - - - - - - - - - - - - - - - - - - - - - -

Intro:
 
 e------------------------------------------------------------x-x-x------------------(12)---|
 b--for the start just stuff about with things like deadnotes:x-x-x----and harmonics:(12)---|
 g------------------------------------------------------------x-x-x------------------(12)---|
 d------------------------------------------------------------x-x-x------------------(12)---|
 a------------------------------------------------------------x-x-x------------------(12)---|ect
 e------------------------------------------------------------x-x-xect---------------(12)---|and pickslides 

stuff
followed by:
 
 e----------0--5--0------5-s----8-----------------------------------------|
 b--------1-------------5---------10-8-10---------------------------------|
 g------2------------s-5----s-9-----------------------------7~7-5---------|
 d----2-----------------------------------------------------------7-5-7---|
 a--0---------------------------------------------------------------------|
 e------------------------------------------------------------------------|

Verse:
Am Em E Eb D repeat D as needed
 
 e--------0-------7-7---------0---0--7-7--------------------------------7-6-5-5-5-5-5--|
 b------1---1-----8-8-------1---4----8-8--------------------------------8-7-6-6-6-6-6--|
 g----2-------2---9-9-----2----------9-9-repeat as needed until you go--9-8-7-7-7-7-7--|
 d----------------9-9----------------9-9--------------------------------9-8-7-7-7-7-7--|
 a--0-------------7-7---0------------7-7--------------------------------7-6-5-5-5-5-5--|
 e-------------------------------------------------------------------------------------|
 e--------0------7-7-----------------|
 b------1---1----8-8-----------------|
 g----2-------2--9-9-9---------------|
 d---------------9-9-9---------------|
 a--0------------7-7-7---------------|
 e-----------------------------------|

Pre Chorus:
[G] [C] [G] [C] [G] [C] [A]  
 
 e-------------------------|
 b-------------------------|
 g-----5-----5-----5-------|
 d--5--5--5--5--5--5--7-7--|
 a--5--3--5--3--5--3--7-7--|
 e--3-----3-----3-----5-5--|

( Tab from: http://www.guitartabs.cc/tabs/t/the_living_end/blood_on_your_hands_tab_ver_2.html )
Chorus
[D] [A#] [A] [G] [C] [A]  
 
 e-----------------------------------------------------------------------------|
 b-----------------------------------------------------------------------------|
 g--7-7-7-7-7-7-7-7------------------------------------5-5-5-555---------------|
 d--7-7-7-7-7-7-7-7--8-8-8-8-8-8-8-7--5-5-5-5-5-5-5-5--5-5-5-555--7-7----------|
 a--5-5-5-5-5-5-5-5--8-8-8-8-8-8-8-7--5-5-5-5-5-5-5-5--3-3-3-333--7-7----------|
 e-------------------6-6-6-6-6-6-6-5--3-3-3-3-3-3-3-3-------------5-6----------|

Verse
Pre Chorus
Chorus
Bridge:
[D] [Am] [Am#5] [Am] [G] [Am]  
 
 e--------------------------------5----5---5---7---9-------------------------|
 b--------------------------------5----6---5---8--10-------------------------|
 g--------------------------------5----5---5---7---9-------------------------|
 d--7--8--9--10--------------------------------------------------------------|
 a--5--5--5--5---------------------------------------------------------------|
 e--------------------------------5----5---5---------------------------------|
 e------------------------------------------------------------------------------------------------|
 b------------------------------------------------------------------------------------------------|
 g-7-7-7-7-7-7-7-7---6-6-6-6-6-6-6-6---5-5-5-5-5-5-5-5-------------8-8-8-8-8-8-8-8--9-9-9-9-9-----|
 d-7-7-7-7-7-7-7-7---7-7-7-7-7-7-7-7---7-7-7-7-7-7-7-7--5-5-5-5----8-8-8-8-8-8-8-8--9-9-9-9-9-----|
 a-5-5-5-5-5-5-5-5---5-5-5-5-5-5-5-5---5-5-5-5-5-5-5-5--5-5-5-5----6-6-6-6-6-6-6-6--7-7-7-7-7ect--|
 e------------------------------------------------------3-3-3-3ect--------------------------------|
 e----------------------------------------------------------------------------------------------------|
 b----------------------------------------------------------------------------------------------------|
 g-5---5-6---6-7---7-6---5-5--5-5--5-5--5-5-6-6--6-6--6-6--6-6-7-7--7-7--7-7--7-7--8-8--8-8--8-8--8-8-|
 d-7---7-7---7-7---7-7---7-7--7-7--7-7--7-7-7-7--7-7--7-7--7-7-7-7--7-7--7-7--7-7--7-7--7-7--7-7--7-7-|
 a-5---5-5---5-5---5-5---5-5--5-5--5-5--5-5-5-5--5-5--5-5--5-5-5-5--5-5--5-5--5-5--5-5--5-5--5-5--5-5-|
 e----------------------------------------------------------------------------------------------------|

Chorus
Outro:
over chords: (I think)
 
 e-1--1--1-----------------------------------------5-----------------------------------------------------------------|
 b-3--2--1---------------------6-5-6-5-6-5-6-5-6-5-----------------------5----------------------3 reapeat 

needed--|
 
 g-2--2--2--dubbed over with-------------------------6-5-6-5-6-5-6-5-6-5----5-4-5-4-5-4-5-4-5-4----------------------|
 d-------------------------------------------------------------------------------------------------------------------|
 a-------------------------------------------------------------------------------------------------------------------|
 e-------------------------------------------------------------------------------------------------------------------|

End:
e---|
b---|
G-9-|
D-9-|
A-7-|
e---|

Important: The song above is NOT stored on the Chordie server. The original song is hosted at www.guitartabs.cc. Chordie works as a search engine and provides on-the-fly formatting. Chordie does not index songs against artists'/composers' will. To remove this song please click here.

Text color:
Chord color:
Chord grids: 
Font size:    
Page size: 

A A# Am Am#5 C D G
Rate #3 of 8 versions

Login - add to songbook

SHARE PAGE  




You need to log in to post comments