Guitar Tabs, Chords and Lyrics
Major upgrade!! After one year development the new version of Chordie is now online! Please give feedback.


Bloody Mary  The Living End

Tabbed by Armin Klauser - lausa777@gmx.at
||=let chords between ring (with a 2nd guitar)
[]=chords between should be played short and not palm muted
~=tremolo arm
^=bend
h=hammer on
p=pull off
Listen to the song carefully for good understanding!
1st Intro:
[Em]  
 
 e|-0-0-----------------------------|
 B|-0-0-----------------------------|
 G|-0-0-----------------------------|
 D|-2-2-----------------------------|(x3)
 A|-2-2---1-2-2-1---1-1-0---0-0-----|
 E|-0-0-3---------3-------3-----3-0-|

|...p a l m ... m u t e d...|
[Em] [B]  
 
 e|-0-0-------------------------2-|~0|
 B|-0-0---------------------0-4-0-|~0|
 G|-0-0-------------------2-----2-|~0|
 D|-2-2---------------0-1-------1-|~2|
 A|-2-2---1-2-2-1---2-----------2-|~2|
 E|-0-0-3---------3---------------|~0|

|palm muted|
2nd Intro:
 
 e|---------------------------------|~0|
 B|---------------------------------|~0|
 G|---------------------------------|~0|
 D|-2-2-----------------------------|~2|
 A|-2-2---1-2-2-1---1-1-0---0-0-----|~2|
 E|-0-0-3---------3-------3-----3-2-|~0|
 e|---------------------------------|~0|
 B|---------------------------------|~0|
 G|---------------------------------|~0|
 D|-2-2-----------------------------|~2|
 A|-2-2---1-2-2-1---1-1-0---0-------|~2|
 E|-0-0-3---------3-------3---3-2-1-|~0|
 e|---------------------------------|~0|
 B|---------------------------------|~0|
 G|---------------------------------|~0|
 D|-2-2-----------------------------|~2|
 A|-2-2---1-2-2-1---1-1-0---0-0-----|~2|
 E|-0-0-3---------3-------3-----3-2-|~0|
 e|-----------------------------2-|~0|
 B|-------------------------0-4-0-|~0|
 G|-----------------------2-----2-|~0|
 D|-2-2---------------0-1-------1-|~2|
 A|-2-2---1-2-2-1---2-----------2-|~2|
 E|-0-0-3---------3---------------|~0|

1st Verse:
 
 e|--[0]----------------------------|
 B|--[0]----------------------------|
 G|---------------------------------|
 D|---------------------------------|(x3)
 A|-------1-2-2-1---1-1-0---0-0-----|
 E|-0-0-3---------3-------3-----3-2-|

|... p a l m ... m u t e d ...|
 
 e|--[0]--------------------------|
 B|--[0]------------------1-0-----|
 G|---------------------------0---|
 D|-----------------------------0-|
 A|-------1-2-2-1---1-1-0---------|
 E|-0-0-3---------3---------------|

|...palm ... muted....|
Chorus:
[Am] [F] [G#] [C]  
 
 e|----0-0---1----4---------|
 B|-1--1-1---1----4--5--5-5-|
 G|-2--2-2---2----5--5--5-5-|
 D|-2--2-2---3----6--5--5-5-|(x2)
 A|-0--0-0--3----6---3--3-3-|
 E|--------1----4-----------|

[Am] [C]  
 
 e|----------------------|~0|
 B|-1------0-0-1--5------|~0|
 G|-2------2-2-2--5------|~0|
 D|-2(x13)-2-2-2--5(x16)-|~2|
 A|-0------0-0-0--3------|~2|
 E|----------------------|~0|

2nd Intro:
 
 e|---------------------------------|~0|
 B|---------------------------------|~0|
 G|---------------------------------|~0|
 D|-2-2-----------------------------|~2|
 A|-2-2---1-2-2-1---1-1-0---0-0-----|~2|
 E|-0-0-3---------3-------3-----3-2-|~0|
 e|-----------------------------2-|~0|
 B|-------------------------0-4-0-|~0|
 G|-----------------------2-----2-|~0|
 D|-2-2---------------0-1-------1-|~2|
 A|-2-2---1-2-2-1---2-----------2-|~2|
 E|-0-0-3---------3---------------|~0|

2nd Verse:
 
 e|--[0]----------------------------|
 B|--[0]----------------------------|
 G|---------------------------------|
 D|---------------------------------|(x4)
 A|-------1-2-2-1---1-1-0---0-0-----|
 E|-0-0-3---------3-------3-----3-2-|

|... p a l m ... m u t e d ...|
Chorus
Pre Solo:
[G] [D] [D#] [F]  
 
 e|-----------|
 B|-----------|

G|-12-7-8-10-|
D|-12-7-8-10-|(x3)
 
 A|-10-5-6-8--|
 E|-----------|

[C] [B]  
 
 e|---------------2-|~0|
 B|-3-------------0-|~0|
 G|---5---------2-2-|~0|
 D|-----5-----1---1-|~2|
 A|-------3-2-----2-|~2|
 E|-----------------|~0|
 e|---------------------------------|~0|
 B|---------------------------------|~0|
 G|---------------------------------|~0|
 D|-2-2-----------------------------|~2|
 A|-2-2---1-2-2-1---1-1-0---0-0-----|~2|
 E|-0-0-3---------3-------3-----3-2-|~0|
 e|---------------------------------|
 B|---------------------------------|
 G|---------------------------------|
 D|-2-2-------------2-2-2-2-2-2-2-2-|
 A|-2-2---1-2-2-1---2-2-2-2-2-2-2-2-|
 E|-0-0-3---------3-0-0-0-0-0-0-0-0-|

|palm ... muted|
or instead of pm
 
 E|-----------------~0----~0----~0--|

Solo:
 
 e|-------------------------------------|
 B|------5^---5^-------5^-----------------|
 G|------5^---5^-3h5p3-5^-3h5p3^----------|
 D|------------------------------5p3h5--3-|
 A|---------------------------------------|
 E|-3-3-----------------------------------|
 e|----------------------------|
 B|----------------------------|
 G|----------------------------|
 D|-5p3------------------------|
 A|-----h5p3-5p3-----3---------|
 E|-------------h6p3---6-3-2-1-|
 e|---------------------------------|
 B|---------------------------------|
 G|------------------5-8-7h8p7p5--3-|
 D|----------s6--5-3----------------|
 A|-3--5-5s6------------------------|
 E|---------------------------------|
 e|----------11-10-11----12^---12^-14^-13----13-^15-|
 B|-13-15-13------------------------------15--------|
 G|-12----------------------------------------------|
 D|-------------------------------------------------|
 A|-------------------------------------------------|
 E|-------------------------------------------------|
 e|-------10-9----------|
 B|----11-----------6-5-|
 G|-12------------3-----|
 D|-------------5-------|
 A|---------------------|
 E|---------------------|
 e|-5p3p2p0------------------------------------|
 B|--------3p2p0-----4p2p0---------------------|
 G|-------------3p2p0-----4p2p0-----3p2p0------|
 D|----------------------------4p2p0-----4p2p0-|
 A|--------------------------------------------|
 E|--------------------------------------------|

[D]  
 
 e|------------------------------------------|
 B|------------------------------------------|
 G|-7-7-7-6-6-6-6-66h7-7-7-7-7h8-8-8-8-8p7-7-|
 D|-7-7-7-6-6-6-6-66h7-7-7-7-7h8-8-8-8-8p7-7-|(x3)
 A|-5-5-5-5-5-5-5-55---5-5-5-5---5-5-5-5---5-|
 E|------------------------------------------|

[F]  
 
 e|----------------------------|
 B|----------------------------|
 G|-7-7-7-6-6-6-6-66h7--11-----|
 D|-7-7-7-6-6-6-6-66h7--11(x8)-|
 A|-5-5-5-5-5-5-5-55----9------|
 E|----------------------------|
 e|-----10------------10-------------10-----------------|
 B|-s10----10-~9---10----10-~11---10----10-~9-----6-----|
 G|-----------------------------------------------5-----|
 D|-----------------------------------------------3(x8)-|
 A|-----------------------------------------------------|
 E|-----------------------------------------------------|

[Gm]  
 
 e|---------------------------------|
 B|---------------------------------|
 G|---------------------------------|
 D|-5-5-----------------------------|(x2)
 A|-5-5---4-5-5-4---4-4-3---3-3-----|
 E|-3-3-6---------6-------6-----6-3-|

3rd Verse:
[Gm]  
 
 e|-3-3-| |---------------------------------|
 B|-3-3-| |---------------------------------|
 G|-3-3-| |---------------------------------|
 D|-5-5-| |-5-5-----------------------------|
 A|-5-5-| |-5-5---4-5-5-4---4-4-3---3-3-----|
 E|-3-3-| |-3-3-6---------6-------6-----6-3-|

[Gm]  
 
 e|-3-3-| |-----------------------|
 B|-3-3-| |-----------------------|
 G|-3-3-| |-----------------9-----|
 D|-5-5-| |-5-5-------------9(x8)-|
 A|-5-5-| |-5-5---4-5-5-4---7-----|
 E|-3-3-| |-3-3-6---------6-------|

Chorus
Outro:
[G] [D] [D#] [F]  
 
 e|-----------|
 B|-----------|

G|-12-7-8-10-|
D|-12-7-8-10-|(x3)
 
 A|-10-5-6-8--|
 E|-----------|

[D] [F6]  
 
 e|-----------------|
 B|---------------6-|
 G|-7-7-7-------7---|
 D|-7-7-7-----7-----|
 A|-5-5-5-7-8-------|
 E|-----------------|

[G] [D] [D#] [F]  
 
 e|-----------|
 B|-----------|

G|-12-7-8-10-|
D|-12-7-8-10-|(x3)
 
 A|-10-5-6-8--|
 E|-----------|

[C] [B] [Em]  
 
 e|---------------2--0-|
 B|-3-------------0--0-|
 G|---5---------2-2--0-|
 D|-----5-----1---1--2-|
 A|-------3-2-----2--2-|
 E|------------------0-|

[End] 

Important: The song above is NOT stored on the Chordie server. The original song is hosted at www.guitartabs.cc. Chordie works as a search engine and provides on-the-fly formatting. Chordie does not index songs against artists'/composers' will. To remove this song please click here.

Text color:
Chord color:
Chord grids: 
Font size:    
Page size: 

B Em Am C D D# F F6 G G# Gm
Rate #1 of 3 versions

Jango Player

Login - add to songbook

SHARE PAGE  



You need to log in to post comments