Guitar Tabs, Chords and Lyrics
Major upgrade!! After one year development the new version of Chordie is now online! Please give feedback.


Closing In  The Living End

by Daniel Hardy:
hardys@spiderweb.com.au
.=staccato
r=rest
*=Repeat section
Intro
 
 |------|------|-----.---|---|------------|------------|---------|
 |------|------|-.-.-3-.-|-5-|------------|------------|---------|
 |------|-8-11-|-5-7---5-|---|-5-let ring-|-5-let ring-|-----4-4-|
 |-7-10-|------|---------|---|------------|------------|-5-5-----|
 |---------|
 |-----5-5-|
 |-7-7-----|
 |---------|

[A]  
 
 |----------|---------|---------|---------|---------|----------|
 |*---------|---------|---------|---------|---------|----------|
 |*-5-5-5-5-|-1-1-3-3-|-5-5-5-5-|---------|---------|-6-6-5-5--|
 |----------|---------|---------|-2-2-5-5-|-3-3-1-1-|----------|
 |-.---.---.--------|
 |-6-.-4-.-2-----7-*|
 |---4---2---.-.---*|
 |-----------5-5----|

[B]  
 
 |---------|---------|---------|---------|---------|---------|
 |---------|---------|---------|---------|---------|---------|
 |-5-5-5-5-|-5-5-5-5-|-7-7-7-7-|-7-7-7-7-|-8-8-8-8-|-8-8-8-8-|
 |---------|---------|---------|---------|---------|---------|

___________________
C |1 |
 
 |---------|---------|---------|---------|---------|---------|
 |---------|---------|---0-3-0-|---2-5-2-|---------|---------|
 |-r-r-r-r-|-r-r-r-r-|-1-------|-3-------|---3-7-3-|---7-5-3-|
 |---------|---------|---------|---------|-5-------|-5-------|

_________
|2
 
 |---------|---------|---------|---------|---------|---------|---|
 |-------0-|-1-0-1-3-|---------|---------|---------|---------|-0-|
 |-3-2-3---|---------|-1-r-r-r-|-3-r-r-r-|-6-r-r-r-|-9-r-r-r-|-5-|
 |---------|---------|---------|---------|---------|---------|---|

D (Half time feel) x4
 
 |----------|---------|---------|----------|---------|-----------|
 |*---------|---------|---------|---------*|---------|*---------*|
 |*---------|---------|---------|---------*|---------|*-r-r-r-r-*|
 |-3333333--|-2222222-|-5555555-|-6666666--|-666-r-r-|-----------|

x8 x4
 
 |-----|-----|-----|-----|--------------------|-------------------|
 |-----|-----|-----|-----|*-7-7-7-7-7-7-7-7--*|*-----------------*|
 |--A--|--B--|--C--|--A--|*------------------*|*-5-5-5-5-5-5-5-5-*|
 |-----|-----|-----|-----|--------------------|-------------------|


Important: The song above is NOT stored on the Chordie server. The original song is hosted at www.guitartabs.cc. Chordie works as a search engine and provides on-the-fly formatting. Chordie does not index songs against artists'/composers' will. To remove this song please click here.

Text color:
Chord color:
Chord grids: 
Font size:    
Page size: 

A B
Rate #1 of 1 versions

Jango Player

Login - add to songbook

SHARE PAGE  




You need to log in to post comments