Guitar Tabs, Chords and Lyrics
Server problems seems to be fixed. Chordie has been experiencing problems with songs disappearing. These issues now seems to be fixed, but still verifying the fix. If you find anything strange, please email admin@chordie.com.


Have They Forgotten?  The Living End

-The Living End-
Have They Forgotten?
Tabbed by Mick Fryar-manumick20@yahoo.com
s=slide
~=vibrado
^=bend
x=dead note
Intro:
[E]  
 
 e----------------------------------------|
 b----------------------------------------|
 g-9-9--9-----9-9--9-----9-9--9---------9-|
 d-9-9--9-----9-9--9-----9-9--9---------9-|
 a-7-7--7-----7-7--7-----7-7--7---------7-|
 e----------------------------------------|

Main Riff:
 
 e-------------------------------------------|
 b-------------------------------------------|
 g-------------------------------------------|
 d------------7------------------------------|
 a-7-10-9-7-----10-9-(x3)----7-10-9-7-5-3-2--|
 e----------7------------------------------3-|

Verse:
[E] [B]  
 
 e-------------------------------------------------------|
 b-------------------------------------------------------|
 g-9-9-9--9-9-9--9-9-9--9-9-9----------------------------|
 d-9-9-9--9-9-9--9-9-9--9-9-9--9-9-9--9-9-9--9-9-9--9-9-9|
 a-7-7-7--7-7-7--7-7-7--7-7-7--9-9-9--9-9-9--9-9-9--9-9-9|
 e-----------------------------7-7-7--7-7-7--7-7-7--7-7-7|

/ p a l m m u t e d................................\
[E] [A]  
 
 e-------------------------------------------------------|
 b-------------------------------------------------------|
 g-9-9-9--9-9-9--9-9-9--9-9-9----------------------------|
 d-9-9-9--9-9-9--9-9-9--9-9-9--7-7-7--7-7-7--7-7-7--7-7-7|
 a-7-7-7--7-7-7--7-7-7--7-7-7--7-7-7--7-7-7--7-7-7--7-7-7|
 e-----------------------------5-5-5--5-5-5--5-5-5--5-5-5|

/ p a l m m u t e d................................\
[B]  
 
 e---------7-7-7-7------|
 b---------7-7-7-7------|
 g---------8-8-8-8------|
 d-9-9-9-9-9-9-9-9------|
 a-9-9-9-9-9-9-9-9------|
 e-7-7-7-7-7-7-7-7-8-9--|
 e------------------------------------|
 b------------------------------------|
 g------------------------------------|
 d------------7-----------------------|
 a-7-10-9-7-----10-9--7-10-9-7-5-3-2--|
 e----------7-----------------------3-|

Repeat Verse
Chorus:
[G] [D] [E]  
 
 e---2------2----0------------0--|
 b---2------3----0-----------0---|
 g---0------2----1----------1----|
 d---0--0-0-0----2---2-----2-----|(x2)
 a-2-2-----------2---2----2------|
 e-3-3---------0-0-0-0-0-0-------|

[C] [D] [G] [F#] [E]  
 
 e------2-2--2-2--4-4---------0-|
 b-5-5--3-3--2-2--4-4--------0--|
 g-5-5--2-2--0-0--3-3-------1---|
 d-5-5--0-0--0-0--4-4--2---2----|
 a-3-3-------2-2--4-4--2--2-----|
 e-----------3-3--2-2--0-0------|

[E] [B] [C] [D]  
 
 e----------2--|
 b----------3--|
 g----4--5--2--|
 d-2--4--5--0--|
 a-2--2--3-----|
 e-0-----------|
 e------------------------------------|
 b------------------------------------|
 g------------------------------------|
 d------------7-----------------------|
 a-7-10-9-7-----10-9--7-10-9-7-5-3-2--|
 e----------7-----------------------3-|

Verse
Chorus
Then,
 
 E-------7---9~---|
 b-------7---11~--|
 g---8---8---11~--|
 d---8---8---11~--|
 a---7---7---9~---|
 e----------------|

Bridge:
 
 e------------------------------------------|
 b----5--------5-------5--------------------|
 g------5-4------5-4-----5-4----------------|
 d------------------------------------------|
 a----------------------------7-7-5-5-3-3-2-|
 e-0---------2-------3----------------------|
 e---------------------------------------|
 b---5-------5-------5-------------------|
 g-----5-4-----5-4-----5-4---------------|
 d---------------------------------------|
 a-------------------------7-7-5-5-3-3-2-|
 e-0-------2-------3---------------------|
 e----------------------------------------------|
 b---5---5---5---5--5---5-----------------------|
 g-2---2---2---2---2---2---2--4s5-5--------5s8--|
 d----------------------------4s5-----5----xsx--|
 a----------------------------2s3---3---3--3s6--|
 e----------------------------------------------|

/p a l m m u t e d......\
Solo:
 
 e-0s0-0-0-----:---------------|
 b-3s5-3-1-----:---------------|
 g---------0-2-:-2~2-0---------|
 d-------------:-------2~-2~-0-|
 a-------------:---------------|
 e-------------:---------------|
 e----------------3p1------:-------------3^3^3^-:-|
 b----------2p0-3-----3-1~-:---------2p0--------:-|
 g------0h2----------------:-----0h2------------:-|
 d--0h2--------------------:-0h2----------------:-|
 a-------------------------:--------------------:-|
 e-------------------------:--------------------:-|
 e--7-7-7-7--8-8-8-8--9-9-9-9-10-10-10-10-12^-10-12-14^-|
 b--7-7-7-7--8-8-8-8------------------------------------|
 g------------------------------------------------------|
 d------------------------------------------------------|
 a------------------------------------------------------|
 e------------------------------------------------------|
 E-12-14-15p14p12-15p14p12-15p14p12-15p14p12-15p14-12-|
 b----------------------------------------------------|
 g----------------------------------------------------|
 d----------------------------------------------------|
 a----------------------------------------------------|
 e----------------------------------------------------|
 E-10-9^-8-7-5-3-|
 b---------------|
 g---------------|
 d---------------|
 a---------------|
 e---------------|

Then,
[Em] [D#m]  
 
 e-7-7-7-7-7---|
 b-6-6-6-6-7---|
 g-9-9-9-9-8---|
 d-9-9-9-9-8---|(x8)
 a-7-7-7-7-6---|
 e-------------|

Chorus
Some time during that chorus you play a quiet solo over it.
but I cant be bothered tabbing it cos Chris only plays it
with a solo in the recording only.
Tabbed By Michael Fryar, manumick20@yahoo.com

Important: The song above is NOT stored on the Chordie server. The original song is hosted at www.guitartabs.cc. Chordie works as a search engine and provides on-the-fly formatting. Chordie does not index songs against artists'/composers' will. To remove this song please click here.

Text color:
Chord color:
Chord grids: 
Font size:    
Page size: 

A B C D D#m E Em F# G
Rate #1 of 5 versions

Login - add to songbook

SHARE PAGE  



You need to log in to post comments