Guitar Tabs, Chords and Lyrics
Server problems seems to be fixed. Chordie has been experiencing problems with songs disappearing. These issues now seems to be fixed, but still verifying the fix. If you find anything strange, please email admin@chordie.com.


Aegis   The Mars Volta

 
 -----------------------------------------------------------------------------
 -----------------------------------------------------------------------------

 


 


 2. Aegis


 


 Intro


 


 [4/4]  

 
 G||--------------------||
 D||--------------------||
 A||--------------------||
 E||-----------2-2------||

 


 [i] [i] [i] [i]  

 
 G||--------------------|--------------------|
 D||--------------------|--------------------|
 A||--------------------|--------------------|
 E||-3-3-------3-3------|-3-3-------3-3------|

 


 [i] [i] [i] [i] [i] [i] [i] [i]  

 
 G||--------------------|--------------------|
 D||--------------------|--------------------|
 A||--------------------|--------------------|
 E||-2-2-------2-2------|-2-2-------2-2------|

 


 [i] [i] [i] [i] [i] [i] [i] [i]  

 
 G||--------------------|--------------------|
 D||--------------------|--------------------|
 A||--------------------|--------------------|
 E||-3-3-------3-3------|-3-3-------3-3----5-|

 


 [i] [i] [i] [i] [i] [i] [i] [i]  

 
 G||--------------------|--------------------|
 D||--------------------|--------------------|
 A||--------------------|--------------------|
 E||-2-2-------2-2------|-2-2-------2-2------|

 


 [i] [i] [i] [i] [i] [i] [i] [i]  

 
 G||--------------------|--------------------|
 D||--------------------|--------------------|
 A||--------------------|--------------------|
 E||-5-5-------5-5------|-5-5-------5-5------|

 


 [i] [i] [i] [i] [i] [i] [i] [i]  

 
 G||--------------------|--------------------|
 D||--------------------|--------------------|
 A||--------------------|--------------------|
 E||-3-3-------3-3------|-3-3-------3----5---|

 


 [i] [i] [i] [i] [i] [i] [i] [i]  

 
 G||--------------------|--------------------|
 D||--------------------|--------------------|
 A||--------------------|--------------------|
 E||-6---------6--------|-5---------2--------|

 


 [i] [i] [i] [i] [i] [i] [i] [i]  

 
 G||--------------------|--------------------|
 D||--------------------|--------------------|
 A||--------------------|--------------------|
 E||-3------------------|--------------------|

 


 [i] [i] [i] [i] [i] [i] [i] [i]  

 
 G||--------------------|--------------------|
 D||--------------------|--------------------|
 A||--------------------|--------------------|
 E||--------------------|-2-2--2-2--2-2--2-2-|

 


 [i] [i] [i] [i] [i] [i] [i] [i] 


 Verse 1


 


 

 
 G||--------------------|--------------------|
 D||--------------------|--------------------|
 A||--------------------|--------------------|
 E||-3-3-------3-3------|-3-3-------3-3------|

 


 [i] [i] [i] [i] [i] [i] [i] [i]  

 
 G||--------------------|--------------------|
 D||--------------------|--------------------|
 A||--------------------|--------------------|
 E||-2-2-------2-2------|-2-2-------2-2------|

 


 [i] [i] [i] [i] [i] [i] [i] [i]  

 
 G||--------------------|--------------------|
 D||--------------------|--------------------|
 A||--------------------|--------------------|
 E||-3-3-------3-3------|-3-3-------3-3------|

 


 [i] [i] [i] [i] [i] [i] [i] [i]  

 
 G||--------------------|--------------------|
 D||--------------------|--------------------|
 A||--------------------|--------------------|
 E||-2-2-------2-2------|-2-2-------2-2------|

 


 [i] [i] [i] [i] [i] [i] [i] [i]  

 
 G||--------------------|--------------------|
 D||--------------------|--------------------|
 A||--------------------|--------------------|
 E||-5-5-------5-5------|-5-5-------5-5------|

 


 [i] [i] [i] [i] [i] [i] [i] [i]  

 
 G||--------------------|--------------------|
 D||--------------------|--------------------|
 A||--------------------|--------------------|
 E||-3-3-------3-3------|-2-2-------3-3------|

 


 [i] [i] [i] [i] [i] [i] [i] [i]  

 
 G||--------------------|--------------------|
 D||--------------------|--------------------|
 A||--------------------|--------------------|
 E||-2-2-------3-3------|-2------------------|

 


 [i] [i] [i] [i] [i] [i] [i] [i]  

 
 G||--------------------|--------------------|
 D||--------------------|--------------------|
 A||--------------------|--------------------|
 E||--------------------|--------------------|

 


 [i] [i] [i] [i] [i] [i] [i] [i]  

 
 G||--------------------||
 D||--------------------||
 A||--------------------||
 E||-2-2--2-2--2-2--2-2-||

 


 [i] [i] [i] [i]  


 

 
 G||--------------------|--------------------|
 D||--------------------|--------------------|
 A||--------------------|--------------------|
 E||-3-3-------3-3------|-3-3-------3-3------|

 


 [i] [i] [i] [i] [i] [i] [i] [i]  

 
 G||--------------------|--------------------|
 D||--------------------|--------------------|
 A||--------------------|--------------------|
 E||-2-2-------2-2------|-2-2-------2-2------|

 


 [i] [i] [i] [i] [i] [i] [i] [i]  

 
 G||--------------------|--------------------|
 D||--------------------|--------------------|
 A||--------------------|--------------------|
 E||-3-3-------3-3------|-3-3-------3-3------|

 


 [i] [i] [i] [i] [i] [i] [i] [i]  

 
 G||--------------------|--------------------|
 D||--------------------|--------------------|
 A||--------------------|--------------------|
 E||-2-2-------2-2------|-2-2-------2-2------|

 


 [i] [i] [i] [i] [i] [i] [i] [i]  

 
 G||--------------------|--------------------|
 D||--------------------|--------------------|
 A||--------------------|--------------------|
 E||-5-5-------5-5------|-5-5-------5-5------|

 


 [i] [i] [i] [i] [i] [i] [i] [i]  

 
 G||--------------------|--------------------|
 D||--------------------|--------------------|
 A||--------------------|--------------------|
 E||-3-3-------3-3------|-3-3-------3----5---|

 


 [i] [i] [i] [i] [i] [i] [i] [i]  

 
 G||--------------------|--------------------|
 D||--------------------|--------------------|
 A||--------------------|--------------------|
 E||-6-6-------6-6------|-5-5-------2--------|

 


 [i] [i] [i] [i] [i] [i] [i] [i]  

 
 G||--------------------|--------------------|
 D||--------------------|--------------------|
 A||--------------------|--------------------|
 E||-3-3----------------|-----------3----5---|

 


 [i] [i] [i] [i] [i] [i] [i] [i]  

 
 G||--------------------|--------------------|
 D||--------------------|--------------------|
 A||--------------------|--------------------|
 E||-6-6--------6-6-----|-5---------2--------|

 


 [i] [i] [i] [i] [i] [i] [i] [i] 


 Chorus 1


 


 [6/4]  

 
 G||------------------------------|------------------------------||
 D||------------------------------|------------------------------||
 A||------------------------------|------------------------------||
 E||-3------3-------8------2------|-8------8-------6------6------||

 


 [i] [i] [i] [i] [i] [i] [i] [i] [i] [i] [i] [i]  

 
 G||------------------------------|------------------------------||
 D||------------------------------|------------------------------||
 A||------------------------------|------------------------------||
 E||-3------3-------1------1------|-8------8-------6------6------||

 


 [i] [i] [i] [i] [i] [i] [i] [i] [i] [i] [i] [i]  

 
 G||------------------------------|------------------------------||
 D||------------------------------|------------------------------||
 A||------------------------------|------------------------------||
 E||-3------3-------1------1------|-8------8-------6------6--8-6-||

 


 [i] [i] [i] [i] [i] [i] [i] [i] [i] [i] [i] [i]  

 
 G||------------------------------|------------------------------|| x2
 D||------------------------------|------------------------------||
 A||------------------------------|------------------------------||
 E||-3------3-------1------1------|-8------8-------6------6------||

 


 [i] [i] [i] [i] [i] [i] [i] [i] [i] [i] [i] [i]  

 
 G||----------||
 D||----------||
 A||----------||
 E||-2-2------||

 


 [i] [i]  


 Interlude


 


 

 
 G||--------------------|--------------------|
 D||--------------------|--------------------|
 A||--------------------|--------------------|
 E||-3-3-------3-3------|-3-3-------3-3------|

 


 [i] [i] [i] [i] [i] [i] [i] [i]  

 
 G||--------------------|--------------------|
 D||--------------------|--------------------|
 A||--------------------|--------------------|
 E||-2-2-------2-2------|-2-2-------2-2------|

 


 [i] [i] [i] [i] [i] [i] [i] [i]  

 
 G||--------------------|--------------------|
 D||--------------------|--------------------|
 A||--------------------|--------------------|
 E||-3-3-------3-3------|-3-3-------3-3------|

 


 [i] [i] [i] [i] [i] [i] [i] [i]  

 
 G||--------------------|--------------------|
 D||--------------------|--------------------|
 A||--------------------|--------------------|
 E||-2-2-------2-2------|-2-2-------2-2------|

 


 [i] [i] [i] [i] [i] [i] [i] [i]  

 
 G||--------------------|--------------------|
 D||--------------------|--------------------|
 A||--------------------|--------------------|
 E||-5-5-------5-5------|-5-5-------5-5------|

 


 [i] [i] [i] [i] [i] [i] [i] [i]  

 
 G||--------------------|--------------------|
 D||--------------------|--------------------|
 A||--------------------|--------------------|
 E||-3-3-------3-3------|-3-3-------3----5---|

 


 [i] [i] [i] [i] [i] [i] [i] [i]  

 
 G||--------------------|--------------------|
 D||--------------------|--------------------|
 A||--------------------|--------------------|
 E||-6-6-------6-6------|-5-5-------2--------|

 


 [i] [i] [i] [i] [i] [i] [i] [i]  

 
 G||--------------------|--------------------|
 D||--------------------|--------------------|
 A||--------------------|--------------------|
 E||-3------------------|--------------------|

 


 [i] [i] [i] [i] [i] [i] [i] [i]  

 
 G||--------------------|--------------------|
 D||--------------------|--------------------|
 A||--------------------|--------------------|
 E||--------------------|-2-2--2-2--2-2--2-2-|

 


 [i] [i] [i] [i] [i] [i] [i] [i] 


 Verse 2


 


 

 
 G||--------------------|--------------------|
 D||--------------------|--------------------|
 A||--------------------|--------------------|
 E||-3-3-------3-3------|-3-3-------3-3------|

 


 [i] [i] [i] [i] [i] [i] [i] [i]  

 
 G||--------------------|--------------------|
 D||--------------------|--------------------|
 A||--------------------|--------------------|
 E||-2-2-------2-2------|-2-2-------2-2------|

 


 [i] [i] [i] [i] [i] [i] [i] [i]  

 
 G||--------------------|--------------------|
 D||--------------------|--------------------|
 A||--------------------|--------------------|
 E||-3-3-------3-3------|-3-3-------3-3------|

 


 [i] [i] [i] [i] [i] [i] [i] [i]  

 
 G||--------------------|--------------------|
 D||--------------------|--------------------|
 A||--------------------|--------------------|
 E||-2-2-------2-2------|-2-2-------2-2------|

 


 [i] [i] [i] [i] [i] [i] [i] [i]  

 
 G||--------------------|--------------------|
 D||--------------------|--------------------|
 A||--------------------|--------------------|
 E||-5-5-------5-5------|-5-5-------5-5------|

 


 [i] [i] [i] [i] [i] [i] [i] [i]  

 
 G||--------------------|--------------------|
 D||--------------------|--------------------|
 A||--------------------|--------------------|
 E||-3-3-------3-3------|-2-2-------0-0------|

 


 [i] [i] [i] [i] [i] [i] [i] [i]  

 
 G||--------------------|--------------------|
 D||--------------------|--------------------|
 A||--------------------|--------------------|
 E||-2-2-------3-3------|-2------------------|

 


 [i] [i] [i] [i] [i] [i] [i] [i]  

 
 G||--------------------|--------------------|
 D||--------------------|--------------------|
 A||--------------------|--------------------|
 E||--------------------|--------------------|

 


 [i] [i] [i] [i] [i] [i] [i] [i]  

 
 G||--------------------||
 D||--------------------||
 A||--------------------||
 E||-2-2--2-2--2-2--2-2-||

 


 [i] [i] [i] [i]  


 

 
 G||--------------------|--------------------|
 D||--------------------|--------------------|
 A||--------------------|--------------------|
 E||-3-3-------3-3------|-3-3-------3-3------|

 


 [i] [i] [i] [i] [i] [i] [i] [i]  

 
 G||--------------------|--------------------|
 D||--------------------|--------------------|
 A||--------------------|--------------------|
 E||-2-2-------2-2------|-2-2-------2-2------|

 


 [i] [i] [i] [i] [i] [i] [i] [i]  

 
 G||--------------------|--------------------|
 D||--------------------|--------------------|
 A||--------------------|--------------------|
 E||-3-3-------3-3------|-3-3-------3-3------|

 


 [i] [i] [i] [i] [i] [i] [i] [i]  

 
 G||--------------------|--------------------|
 D||--------------------|--------------------|
 A||--------------------|--------------------|
 E||-2-2-------2-2------|-2-2-------2-2------|

 


 [i] [i] [i] [i] [i] [i] [i] [i]  

 
 G||--------------------|--------------------|
 D||--------------------|--------------------|
 A||--------------------|--------------------|
 E||-5-5-------5-5------|-5-5-------5-5------|

 


 [i] [i] [i] [i] [i] [i] [i] [i]  

 
 G||--------------------|--------------------|
 D||--------------------|--------------------|
 A||--------------------|--------------------|
 E||-3-3-------3-3------|-3-3-------3----5---|

 


 [i] [i] [i] [i] [i] [i] [i] [i]  

 
 G||--------------------|--------------------|
 D||--------------------|--------------------|
 A||--------------------|--------------------|
 E||-6-6-------6-6------|-5---------2--------|

 


 [i] [i] [i] [i] [i] [i] [i] [i]  

 
 G||--------------------|--------------------|
 D||--------------------|--------------------|
 A||--------------------|--------------------|
 E||-3------------------|-----------3----5---|

 


 [i] [i] [i] [i] [i] [i] [i] [i]  

 
 G||--------------------|--------------------|
 D||--------------------|--------------------|
 A||--------------------|--------------------|
 E||-6-6--------6-6-----|-5-5-------2--------|

 


 [i] [i] [i] [i] [i] [i] [i] [i] 


 Chorus 2


 


 [6/4]  

 
 G||------------------------------|------------------------------||
 D||------------------------------|------------------------------||
 A||------------------------------|------------------------------||
 E||-3------3-------1------1------|-8------8-------6------6------||

 


 [i] [i] [i] [i] [i] [i] [i] [i] [i] [i] [i] [i]  

 
 G||------------------------------|------------------------------|| x2
 D||------------------------------|------------------------------||
 A||------------------------------|------------------------------||
 E||-3------3-------1------1------|-8------8-------6------6--8-6-||

 


 [i] [i] [i] [i] [i] [i] [i] [i] [i] [i] [i] [i]  

 
 G||------------------------------|------------------------------|| x2
 D||------------------------------|------------------------------||
 A||------------------------------|------------------------------||
 E||-3------3-------1------1------|-8------8-------6------6------||

 


 [i] [i] [i] [i] [i] [i] [i] [i] [i] [i] [i] [i]  

 
 G||----------||
 D||----------||
 A||----------||
 E||-2-2------||

 


 [i] [i]  


 Outro


 


 [4/4]  

 
 G||--------------------|--------------------|--------------------|
 D||--------------------|--------------------|--------------------|
 A||--------------------|--------------------|--------------------|
 E||-3-3--3-3--3-3--3-3-|-8-8--8-8--8-8--8-8-|-8-8--8-8--8-8--8-8-|

 


 [i] [i] [i] [i] [i] [i] [i] [i] [i] [i] [i] [i]  

 
 G||--------------------|--------------------|
 D||--------------------|--------------------|
 A||--------------------|--------------------|
 E||-4-4--4-4--4-4--4-4-|-4-4--4-4--4-4--3-3-|

 


 [i] [i] [i] [i] [i] [i] [i] [i]  

 
 G||--------------------|--------------------|| x3
 D||--------------------|--------------------||
 A||--------------------|--------------------||
 E||-1-1--1-1--1-1--1-1-|-1-1--1-1--1-1--1-1-||

 


 [i] [i] [i] [i] [i] [i] [i] [i]  

 
 G||--------------------|--------------------|--------------------|
 D||--------------------|--------------------|--------------------|
 A||--------------------|--------------------|--------------------|
 E||-3-3--3-3--3-3--3-3-|-8-8--8-8--8-8--8-8-|-8-8--8-8--8-8--8-8-|

 


 [i] [i] [i] [i] [i] [i] [i] [i] [i] [i] [i] [i]  

 
 G||--------------------|--------------------|
 D||--------------------|--------------------|
 A||--------------------|--------------------|
 E||-4-4--4-4--4-4--4-4-|-4-4--4-4--4-4--3-3-|

 


 [i] [i] [i] [i] [i] [i] [i] [i]  

 
 G||--------------------|--------------------||
 D||--------------------|--------------------||
 A||--------------------|--------------------||
 E||-1-1--1-1--1-1--1-1-|-1-1--1-1--1-1------||

 


 [i] [i] [i] [i] [i] [i] [i] [i] 


 Chorus 2


 


 [6/4]  

 
 G||------------------------------|------------------------------||
 D||------------------------------|------------------------------||
 A||------------------------------|------------------------------||
 E||-3------3-------1------1------|-8------8-------6------6--6-6-||

 


 [i] [i] [i] [i] [i] [i] [i] [i] [i] [i] [i] [i]  

 
 G||------------------------------|------------------------------||
 D||------------------------------|------------------------------||
 A||------------------------------|------------------------------||
 E||-3------3-------1----1-1--1-1-|-8------8-------6-6--6-6--6-6-||

 


 [i] [i] [i] [i] [i] [i] [i] [i] [i] [i] [i] [i]  

 
 G||------------------------------|------------------------------||
 D||------------------------------|------------------------------||
 A||------------------------------|------------------------------||
 E||-3------3-------1------3--1-3-|-1/8----8-------6-6--8-8--6-6-||

 


 [i] [i] [i] [i] [i] [i] [i] [i] [i] [i] [i] [i]  

 
 G||------------------------------|------------------------------||
 D||------------------------------|------------------------------||
 A||------------------------------|------------------------------||
 E||-3-3--3-3--3-3--1-1--1-0--1-0-|-8-8--8-8--8-8--6-6--6-6--6-6-||

 


 [i] [i] [i] [i] [i] [i] [i] [i] [i] [i] [i] [i]  

 
 G||------------------------------|------------------------------|| x5
 D||------------------------------|------------------------------||
 A||------------------------------|------------------------------||
 E||-3-3--3-3--3-3--1-1--1-1--1-1-|-8-8--8-8--8-8--6-6--6-6--6-6-||

 


 [i] [i] [i] [i] [i] [i] [i] [i] [i] [i] [i] [i]  

 
 G||----------||
 D||----------||
 A||----------||
 E||-2-2------||

 


 [i] [i]  


 Tab by Pedro Zappa


 

 
 -----------------------------------------------------------------------------
 -----------------------------------------------------------------------------


Important: The song above is NOT stored on the Chordie server. The original song is hosted at www.guitartabs.cc. Chordie works as a search engine and provides on-the-fly formatting. Chordie does not index songs against artists'/composers' will. To remove this song please click here.

This song is displayed as text-only. Transposing and tuning is only available for chordpro-songs.
Rate #1 of 1 versions

Jango Player

Login - add to songbook

SHARE PAGE  




You need to log in to post comments