Guitar Tabs, Chords and Lyrics
Update 25:10. 13:00. Site is back up running again. Songbooks are recovered. Woring on getting search back up..


Liar  The Mary Dream

 
 -------------------------------------------------------------------------------

Liar - The Mary Dream
 
 -------------------------------------------------------------------------------

Tabbed by:Rafael Solis
INTRO
 
 e|----12~10~8---------------------------|
 B|--------------------------------------|
 G|--2~--------------ó-------------------|
 D|--------------------------------------|
 A|--------------------------------------|
 E|--------------------------------------|

VERSE
 
 e|--7~--5~------------------------------|
 B|-----------10~------------------------|
 G|------------------ó-------------------|
 D|--------------------------------------|
 A|--------------------------------------|
 E|--------------------------------------|

CHORUS x3
 
 e|--0-------------3---------------------|
 B|----1--0--1--0-----0--1---------------|
 G|------------------ó-------------------|
 D|--------------------------------------|
 A|--------------------------------------|
 E|--------------------------------------|
 e|-------0------------------------------|
 B|--1-0-----0--1------------------------|
 G|------------------ó-------------------|
 D|--------------------------------------|
 A|--------------------------------------|
 E|--------------------------------------|

BRIDGE
 
 e|--------------------------------------|
 B|--1--0--------1--0--------------------|
 G|--------0---------ó-0-----------------|
 D|--------------------------------------|
 A|--------------------------------------|
 E|--------------------------------------|

INTRO
[Am]  
VERSE II
[Am]So now I know

That youíre a liar

So now I know for sure

The things I thought were all along
( Tab from: http://www.guitartabs.cc/tabs/t/the_mary_dream/liar_tab.html )
CHORUS
[F]But did you think at all of me[C]
Or did you think o[F]nly of yourself
[C];
Did you [G]think at all of me̷[Am]2;
Or only of you[F]rself
INTRO
[Am]  
VERSE II
[Am]I thought we had

Something higher

I thought we had a piece of something we could
call our own
CHORUS
But did you thi[F]nk at all of [C]me

Or did you thin[F]k only of yoursel[C]f
Did you[G] think at all of [Am]me

Or only of yourself[F]
BRIDGE
[F]Or what you have d[C]one

[F]to your precious h[C]eart

[F]Or what you have don[C]e

[G]to your soul
INTERLUDE
[Am]So try to look at yourself in the [F]eye

I quit asking myself w[G]hy

Itís done and it canít be er[F]ased

Itís done, whatís done is done
CHORUS X 2
But did you thi[F]nk at all of m[C]e

Or did you thin[F]k only of yourse[C]lf
Did you[G] think at all of [Am]me

Or only of your[F]self
OUTRO
Or [F]what you have d[C]one

to [F]your precious hea[C]rt

Or w[F]hat you have do[C]ne
to [F]your so[C]ul
End on F

Important: The song above is NOT stored on the Chordie server. The original song is hosted at www.guitartabs.cc. Chordie works as a search engine and provides on-the-fly formatting. Chordie does not index songs against artists'/composers' will. To remove this song please click here.

Text color:
Chord color:
Chord grids: 
Font size:    
Page size: 

Am C F G
Rate #1 of 2 versions

Jango Player

Login - add to songbook

SHARE PAGE  



You need to log in to post comments