Guitar Tabs, Chords and Lyrics
Login is temporarily disabled for some users. Do not panic. Will be back in an hour or two. DO NOT REREGISTER!!


I Was Wrong  POP ETC

Chords used:
C: 8 10 10 9 8 8
F: x 8 10 10 10 x
Dm: x 5 7 7 6 5
G: x 10 12 12 12 x
Gm: x 10 12 12 11 10
Fmaj: 1 3 3 2 1 1
Am: 5 7 7 5 5 5
Listen to the song for the strumming pattern
Intro: C F Dm G (x2)
[C]I've seen [F]love
kick a [Dm]man while he's [G]down
when you [C]think that you're [F]alone[Dm] [G]
And you [C]cover it [F]up
just to [Dm]stay on your [G]feet
but the [C]cut is just too de[F]ep[Dm] [G]
[Gm]I was wrong
[Dm]when I said "you were right"[Dm] [Am] [Dm] [Am]
[Gm]Cause it's no fun
[Dm]when everything is so [Fmaj]nice
[C]But I've been waiting [F]too patiently
[Dm]for life to turn its [G]back on me and
[C]not just go my [F]way[Dm] [G]
A [C]month down the [F]line
it's [Dm]hard to be[G]lieve
that we [C]ever lived ap[F]art[Dm] [G]
And [C]sometimes a g[F]irl can [Dm]make you forg[G]et
we've been [C]alone since the s[F]tart[Dm] [G]
[Gm]There's nothing
[Dm]like a healthy break[Dm] [Am] [Dm] [Am]
[Gm]Now I've got
Dm Fmaj Fmaj (x7)
no heart left to ache
[C]But I've been waiting [F]too patiently
[Dm]for life to turn its [G]back on me and
[C]not just go my [F]way[Dm] [G]
[C]'Cause everything was s[F]o perfect back [Dm]then
I don't under[G]stand why
we can't [C]let it stay that [F]way[Dm] [G]
Outro:
 
 e|--------8------|-----13-12-10--|-------13--13--|------15--15---|
 B|------5--5-----|---10----------|-----10--10----|-10/12--12--12-|
 G|---/5----------|/10------------|---10----------|---------------| x4
 D|---------------|---------------|---------------|---------------|
 A|---------------|---------------|---------------|---------------|
 E|---------------|---------------|---------------|---------------|

On the third time (out of 4) play this:
 
 e|--------8------|-----13-12-13--|-------13--13--|------15--15---|
 B|------5--5-----|---10----------|-----10--10----|-10/12--12--12-|
 G|---/5----------|/10------------|---10----------|---------------|
 D|---------------|---------------|---------------|---------------|
 A|---------------|---------------|---------------|---------------|
 E|---------------|---------------|---------------|---------------|

End on:
 
 e|--15-----|--13-----|
 B|--15-----|--13-----|
 G|--15-----|--14-----|
 D|---------|---------|
 A|---------|---------|
 E|---------|---------|

And that's that. Have fun playing it.

Important: The song above is NOT stored on the Chordie server. The original song is hosted at www.guitartabs.cc. Chordie works as a search engine and provides on-the-fly formatting. Chordie does not index songs against artists'/composers' will. To remove this song please click here.

Text color:
Chord color:
Chord grids: 
Font size:    
Page size: 

Am C Dm F Fmaj G Gm
Rate #1 of 2 versions

Jango Player

Login - add to songbook

SHARE PAGE  




You need to log in to post comments