Guitar Tabs, Chords and Lyrics
Login is temporarily disabled for some users. Do not panic. Will be back in an hour or two. DO NOT REREGISTER!!


Lost  The Pigeon Detectives

 
 -------------------------------------------------------------------------------

LOST - The Pigeon Detectives
 
 -------------------------------------------------------------------------------

Tabbed by: Marvin Gallo (EXiGE93)
Email: EXiGE93@web.de
Tuning: Standard
 
 -------------------------------------------------------------------------------

I'm a big fan of TPD but apparently there are no tabs for the new album yet
so I thought I might give it a shot and try to discern the chords as good as possible.
This is my first real tab so feel free to leave a comment or corrections.
NOTE: I am German and I couldn't find any lyrics so I had to use my ears and brain
to get those lyrics. I'm pretty sure they're wrong at some points but who gives a shit :P
Chords: D (X-5-7-7-7-5)
E (X-7-9-9-9-7)
F#m (X-9-11-11-10-9)
 
 G (X-10-12-12-12-10) and (3-5-5-4-3-3) [You will hear when to use which one]

[A] [(5-7-7-6-5-5)]  
[Bm] [(7-9-9-7-7-7)]  
Intro:
[D] [G] [D] [G]  
[D]I can't seem to get this all out of my head
Is it[(G)] me, is it you, is it me now?
[(D)]I can't seem to get this all out of my head
Is it[(G)] me or is it you, is it me now?
[Em]You don't know what it's doing to [D]me
[Em]You don't know what it's doing to [D]me
But[Bm] I was never [A]lost I just go [Em]out of [D]here
So now [G]you won't [F#m]lay me [Em]down
No[Bm] I was never [A]lost I just got [Em]out of [D]here
So now [G]you won't [F#m]lay me [Em]down
[D] [G] [D] [G]  
[D]Remember yesterday the streets were running red
I lied d[(G)]own on the ground hearing noises
[D]Or is this city just a place to rest my head
sleep it [G]off, coming down, hearing voices
[Em]And you don't know what it's doing to [D]me
[Em]You don't know what it's doing to [D]me
But[Bm] I was never [A]lost I just got [Em]out of [D]here
So now [G]you won't [F#m]lay me d[Em]own
No[Bm] I was never [A]lost I just got [Em]out of [D]here
So now [G]you won't [F#m]lay me d[Em]own
Solo:
[D]  
 
 e|---14--12--10--12----10----10--12-----|
 B|------------------------12-----------*|
 G|--------------------------------------|
 D|--------------------------------------|
 A|-------------------------------------*|
 E|--------------------------------------|

[G]  
 
 e|---14--12---10------10----10----------|
 B|-----------------12----12-----10-----*|
 G|--------------------------------------|
 D|--------------------------------------|
 A|-------------------------------------*|
 E|--------------------------------------|

[D]  
 
 e|---14--12--10--12----10----10--12-----|
 B|------------------------12-----------*|
 G|--------------------------------------|
 D|--------------------------------------|
 A|-------------------------------------*|
 E|--------------------------------------|

[G]  
 
 e|---14--12---10------10----10-----------14--12---10------10----10--11b------|
 B|-----------------12----12-----10---------------------12----12--------------|
 G|---------------------------------------------------------------------------|
 D|---------------------------------------------------------------------------|
 A|---------------------------------------------------------------------------|
 E|---------------------------------------------------------------------------|

[Em]And you don't know what it's doing to [D]me
[Em]But you don't know what it's doing to [D]me
But[Bm] I was never [A]lost I just got [Em]out of [D]here
So now [G]you won't [F#m]lay me [Em]down
No[Bm] I was never [A]lost I just got [Em]out of [D]here
So now [G]you won't [F#m]lay me [Em]down
And[Bm] I was never [A]lost I just got [Em]out of [D]here
So now [G]you won't [F#m]lay me [Em]down
[D] [G] [D] [G]  
That's it. These are the chords and the little solo.
I know there is a 2nd guitar which often plays singe notes and stuff like that,
but I'm to lazy to tab that now because it's pretty easy. Just try it.
Peace.
************************************
| / slide up
| \ slide down
| h hammer-on
| p pull-off
| ~ vibrato
| + harmonic
| x Mute note
| b Bend
| pb Pre-bend
| br Bend release
| pbr Pre-bend release
| brb Bend release bend
************************************

Important: The song above is NOT stored on the Chordie server. The original song is hosted at www.guitartabs.cc. Chordie works as a search engine and provides on-the-fly formatting. Chordie does not index songs against artists'/composers' will. To remove this song please click here.

Text color:
Chord color:
Chord grids: 
Font size:    
Page size: 

A Bm D Em F#m G
Rate #0 of 2 versions

Jango Player

Login - add to songbook

SHARE PAGE  




You need to log in to post comments