Guitar Tabs, Chords and Lyrics
Server problems seems to be fixed. Chordie has been experiencing problems with songs disappearing. These issues now seems to be fixed, but still verifying the fix. If you find anything strange, please email admin@chordie.com.


Waiting  The Red Jumpsuit Apparatus

Don't You Fake It
2006
Submitted by: paramore_fans@yahoo.com
Key: F
Tuning: Standard EADGBe
Chords used: similar to YOUR GUARDIAN ANGEL
[F]C [-]- [133211]x32010
Dm - xx0231
Bb - x13331
 
 Intro: Dm--C-F--Bb---C

Guitar 2:
 
 e|-3-3-1-1-3-3-1-1-3-3-1-1-0-1-|-5-5-5-5-5-|-0-0-0-0-0-|
 B|-1-1-1-1-1-1-1-1-1-1-1-1-1-1-|-6-6-6-6-6-|-1-1-1-1-1-|
 G|-----------------------------|-3-3-3-3-3-|-0-0-0-0-0-|
 D|-----------------------------|-----------|-----------|
 A|-----------------------------|-----------|-----------|
 E|-----------------------------|-----------|-----------|

x2 x5
Verse 1:
[Dm]Feeling sorrow
for all the things you
had to s[Bb]teal and borrow
Bring back the days we
had be[Dm]fore tomorrow
relapse and then collapse
in[Bb]to yourself once [C]more
Chorus:
[Dm]Waiting for this [C]life to [F]change
seems like it's taking me forever
[Bb] and I can't hold on. This life is [C]breaking
And in the [Dm]day this life is [C]going to [F]change
seems like it's taking me forever
[Bb] And I can't hold on. This life is [C]breaking
And in the [Dm]day
Post Chorus: Dm--C-Dm
Guitar 1:
Metallic Riff ah means artificial harmonics
 
 e|-5---------0ah20-----------|
 B|-6-8-6-8-6-1ah13-----------|
 G|---9-7-9-7-----------------|
 D|---------------------------|
 A|---------------------------|
 E|---------------------------|

Guitar 2: tr means tremolo effect
 
 e|-5---------8tr-|
 B|---8-6-5-6-----|
 G|---------------|
 D|---------------|
 A|---------------|
 E|---------------|

Verse 2:
[Dm]But I can't feel
The doctor tells me
to re[Bb]lax and stand still
Prescribe me a new pill
to [Dm]quell my anger
Wish I could make her pull
her[Bb]self up off the [C]floor
(Repeat Chorus)
a[Bb]gain[F] in the [Dm]day a[Bb]gain[C]
(Repeat Chorus)
Outro:
[Dm]Take time to [F]contemplate who you
[Bb]are and where you [C]want to go
(Repeat)
[Dm--C-Dm]  
Guitar 1:
Metallic Riff ah
 
 e|-5---------0ah20-|
 B|-6-8-6-8-6-1ah13-|
 G|---9-7-9-7-------|
 D|-----------------|
 A|-----------------|
 E|-----------------|

Guitar 2: tr
 
 e|-5---------8tr-|
 B|---8-6-5-6-----|
 G|---------------|
 D|---------------|
 A|---------------|
 E|---------------|


Important: The song above is NOT stored on the Chordie server. The original song is hosted at www.guitartabs.cc. Chordie works as a search engine and provides on-the-fly formatting. Chordie does not index songs against artists'/composers' will. To remove this song please click here.

Text color:
Chord color:
Chord grids: 
Font size:    
Page size: 

Bb C Dm F
Rate #2 of 2 versions

Jango Player

Login - add to songbook

SHARE PAGE  




You need to log in to post comments