Guitar Tabs, Chords and Lyrics
Server problems seems to be fixed. Chordie has been experiencing problems with songs disappearing. These issues now seems to be fixed, but still verifying the fix. If you find anything strange, please email admin@chordie.com.


A Healthy Time  The Sidekicks

This is a song that i first heard on the If You Make It - Pink Couch Sessions which is
i tabbed this from. Its an exellent song by and great band. this is my first tab so i
you find it helpful
Song - A Healthy Time (Acoustic)
Artist- The Sidekicks
Tabbed By - Tim Diltz
any questions or comments email me at brotilt@gmail.com
Chords
[C] [G] [F] [Fm] [Bm7] [Bm] [Bsus]  
 
 e|--0--1--1--1--7---5--8--|
 B|--1--0--1--1--8---6--6--|
 G|--0--0--2--1--9---7--7--|
 D|--2--0--3--3--9---7--7--|
 A|--3--2--3--x--7---5--5--|
 E|--x--3--x--x--x---x--x--|

Intro
[-----]  
Rhythm x2 - C G F x1 C G F
x2 G
Lead x2
 
 e|------------------------------------------------|
 B|---------13-------------------------------------|
 G|----12-14--14----12------------------12---------|
 D|--14-----------14---14-12s10-10-12s14--14-12-10-|
 A|------------------------------------------------|
 E|------------------------------------------------|
 e|-----------------------------------------|
 B|---------13----13-12-10----13-12-10------|
 G|----12-14--14----------12-9--------12-9--|
 D|--14-------------------------------------|
 A|-----------------------------------------|
 E|-----------------------------------------|

Verse
I[C]'m so[G]rry for [F]you
I[C]f you h[G]ad to g[F]o through even h[Fm]alf of this
M[C]y he[G]ad is a co[F]rkscrew
M[C]aybe [G]I'm too e[F]asily af[Fm]fected
Chorus
B[F]ut it takes a healthy t[Fm]ime
To redesign our l[C]ives
B[F]ut it takes a healthy t[Fm]ime
To redesign our l[C]ives
B[F]ut it takes a healthy t[Fm]ime
[C] [G] [F] [G] 
[C]To forget what these traces of past constantly remind
Verse
[C]It ta[G]kes a lo[F]ng time
[C]To wake up in a [G]new place and r[F]efocus [Fm]eyes
[C]Realit[G]y re[F]alized
On [C]our own outlo[G]oks to cons[F]truct its o[Fm]wn design
Chorus
B[F]ut it takes a healthy t[Fm]ime
To redesign our l[C]ives
B[F]ut it takes a healthy t[Fm]ime
To redesign our l[C]ives
B[F]ut it takes a healthy t[Fm]ime
[C] [G] [F] [G] 
[C]To forget what these traces of past constantly remind
Bridge - C F Bm7 Bm Bsus x1 Before Singing
[C]And you take what you own
[F]Sell it off, stand alone
[Bm7]But you can't just dispose
[Bm]Of what you've loved
[Bsus]And you've known
[C]So the past luminates
[F]Covering only fades
[Bm7]Like the clouds to the moon
[Bm]I will keep sh[Bsus]ining through
Lead-
 
 e|--------------------------------------| e|----------|
 B|-------8----------8---------8---------| B|--8888-x4-|
 G|--5-7s9--9-7s5-7s9-9-7s4-7s9-9-7s5-7s9| x2 G|--9999----|
 D|--------------------------------------| D|----------|
 A|--------------------------------------| A|----------|
 E|--------------------------------------| E|----------|

Outro
[C]And you take what you own
[F]Sell it off, stand alone
[Bm7]But you can't just dispose
[Bm]Of what you've loved
[Bsus]And you've known
Lead
 
 e|--------------------------------|
 B|--------------------------------|
 G|--------------------------------| x2
 D|---0-2-0----0-2-2--0-2-0--0-2-0-|
 A|--3------3-3------0-----00------|
 E|--------------------------------|

[C]So you take what you own
[F]Sell it off, stand alone
[Bm7]But you can't just dispose
[Bm]Of what you've loved
[Bsus]And you've known
[C]So the past luminates
[F]Covering only fades
[Bm7]Like the clouds to the moon
[Bm]I will keep sh[Bsus]ining through
[Bm]Shining t[Bsus]hrough
[C]I'm s[F]orry for[Fm] you

Important: The song above is NOT stored on the Chordie server. The original song is hosted at www.guitartabs.cc. Chordie works as a search engine and provides on-the-fly formatting. Chordie does not index songs against artists'/composers' will. To remove this song please click here.

Text color:
Chord color:
Chord grids: 
Font size:    
Page size: 

Bm Bm7 Bsus C F Fm G
Rate #1 of 1 versions

Login - add to songbook

SHARE PAGE  




You need to log in to post comments