Guitar Tabs, Chords and Lyrics
Update 25:10. 13:00. Site is back up running again. Songbooks are recovered. Woring on getting search back up..


Liquid In, Liquid Out  The Thermals

TONALITY: Eb (CAPO -1)
Liquid [D]In, Liquid [A]Out
It's what my l[D]ife was all ab[A]out (X2)
It's what my l[D]ife was all ab[Bm]out, it was all ab[A]out
Satur[D]ate, fill me [A]up
Liquid[D]ate, empty my c[A]up
It's what my l[D]ife was all ab[Bm]out, it was all ab[A]out
Saliv[D]ate, ring the b[A]ell
Clean the pl[D]ate, my slate as w[A]ell
It's what my l[D]ife was all ab[Bm]out, it was all ab[A]out
Drank the s[Bm]un, drank the r[A]ain
Down the r[Bm]iver, down the dr[A]ain
I n[D]ever went, I never went with[A]out
Liquid [D]In, Liquid [A]Out
It's what my l[D]ife was all ab[A]out
It's what my l[D]ife was all ab[Bm]out, it was all ab[D]out[A]
SOLO:
( Tab from: http://www.guitartabs.cc/tabs/t/the_thermals/liquid_in_liquid_out_crd_ver_3.html )
[D] [A] [D] [A] [D] [Bm] [A]  
 
 e|-------|---------|--------|---------|-------|---------|--------------|
 B|-------|---------|--------|---------|-------|---------|--------------|
 G|---0---|-----3-0-|---0----|-----3-0-|-----0-|-1-0-----|--------------|
 D|-1---1-|-0-------|-1---1--|-0-------|-1-3---|-----3-1-|-0----------0-|
 A|-------|---1-----|--------|---1-----|-------|---------|---3-1--1-3---|
 E|-------|---------|--------|---------|-------|---------|--------------|

[D] [A] [D] [A] [D] [Bm] [A]  
 
 e|---------|-----------|---------|-----------|---------|---------|---|
 B|---------|-----------|---------|-----------|---------|-----1-2-|-3-|
 G|----0----|------3-0--|----0----|------3-0--|------0--|-1-3-----|---|
 D|--1---1--|--0--------|--1---1--|--0--------|--1-3----|---------|---|
 A|---------|----1------|---------|----1------|---------|---------|---|
 E|---------|-----------|---------|-----------|---------|---------|---|

Drank the s[Bm]un, drank the r[A]ain
Down the r[Bm]iver, down the dr[A]ain
I n[D]ever went, I never went with[A]out
Liquid [D]In, Liquid [A]Out
It's what my l[D]ife was all ab[A]out
It's what my l[D]ife was all ab[Bm]out, it was all ab[D]out

Important: The song above is NOT stored on the Chordie server. The original song is hosted at www.guitartabs.cc. Chordie works as a search engine and provides on-the-fly formatting. Chordie does not index songs against artists'/composers' will. To remove this song please click here.

Text color:
Chord color:
Chord grids: 
Font size:    
Page size: 

A Bm D
Rate #2 of 4 versions

Login - add to songbook

SHARE PAGE  



You need to log in to post comments