Guitar Tabs, Chords and Lyrics
Server problems seems to be fixed. Chordie has been experiencing problems with songs disappearing. These issues now seems to be fixed, but still verifying the fix. If you find anything strange, please email admin@chordie.com.


End of the Line  Traveling Wilburys

[INTRO] 
[G] [D] [G] [D] [G] [A] [D] [D] [D]  
 
 G:--------|--------|--------|--------|
 D:--------|--------|--------|--------|
 A:--------|--------|--------|--------|
 E:--------|--------|--------|--------|

[CBORUS] 
Well it's [D]al-[D]right, [D]riding a[A]round in the [G]breeze
Well it's [D]al-[D]right, [D]if you live the [A]life you [D]please
Well it's [D]al-[D]right, [D]doing the [A]best you [G]can
Well it's [D]al-[D]right, as [D]long as you [A]lend a [D]hand[D]
[D] [D] [D] [A] [G] [D] [D] [D] [A] [D] [D] [D] [D] [A] [G] [D] [D] [D] [A] [D] [D]  
 
 G:--------|--------|--------|--------|--------|--------|--------|--------|----|
 D:0-0-0-0-|0-------|0-0-0-0-|0---0---|0-0-0-0-|0-------|0-0-0-0-|0---0-0-|0-0-|
 A:--------|--0----0|--------|--0---02|--------|--0----0|--------|--0-----|---0|
 E:--------|----3-3-|--------|--------|--------|----3-3-|--------|--------|----|

[VERSE] 
[G] You can sit around and [G]wait for the [D]phone to ring (At the [D]end of the line)
[G] Waiting for some[G]one to tell you [D]everything (At the e[D]nd of the line - of the line)
[G]Sit around and [G]wonder what to[D]morrow'll bring (At the [D]end of the line)
Maybe a [A]diamond ring[A]
[G] [G] [D] [D] [G] [D] [D] [D] [G] [G] [D] [D] [A] [A]  
 
 G:--------|--------|--------|--------|--------|--------|--------|
 D:--------|0-0-0-0-|--------|0-0-0-0-|--------|0-0-0-0-|--------|
 A:--------|--------|-------0|--------|-------0|--------|0-0-0-04|
 E:3-3-3-3-|--------|3-3-3-3-|--------|3-3-3-3-|--------|--------|

[CBORUS] 
Well it's [D]al-[D]right, [D]even if they [A]say you're [G]wrong
Well it's [D]al-[D]right, [D]sometimes you [A]gotta be [D]strong
Well it's [D]al-[D]right, as [D]long as you got [A]someone to [G]lay
Well it's [D]al-[D]right, [D]every day is [A]just one [D]day[D]
[D] [D] [D] [A] [G] [D] [D] [D] [A] [D] [D] [D] [D] [A] [G] [D] [D] [D] [A] [D] [D]  
 
 G:--------|--------|--------|--------|--------|--------|--------|--------|----|
 D:0-0-0-0-|0-------|0-0-0-0-|0---0---|0-0-0-0-|0-------|0-0-0-0-|0---0-0-|0-0-|
 A:--------|--0----0|--------|--0---02|--------|--0----0|--------|--0-----|---0|
 E:--------|----3-3-|--------|--------|--------|----3-3-|--------|--------|----|

[VERSE] 
[G] Maybe some[G]where down the [D]road a ways (At the [D]end of the line)
[G] You'll think of me and [G]wonder where I [D]am these days (At the [D]end of the line)
[G]Maybe somewhere [G]down the road when some[D]body plays (At the [D]end of the line)
[A]Purple haze[A]
[G] [G] [D] [D] [G] [D] [D] [D] [G] [G] [D] [D] [A] [A]  
 
 G:--------|--------|--------|--------|--------|--------|--------|
 D:--------|0-0-0-0-|--------|0-0-0-0-|--------|0-0-0-0-|--------|
 A:--------|--------|-------0|--------|-------0|--------|0-0-0-04|
 E:3-3-3-3-|--------|3-3-3-3-|--------|3-3-3-3-|--------|--------|

[CBORUS] 
Well it's [D]al-[D]right, [D]even when [A]push comes to [G]shove
Well it's [D]al-[D]right, [D]if you got [A]someone to [D]love
Well it's [D]al-[D]right, [D]everything'll [A]work out [G]fine
Well it's [D]al-[D]right, we're [D]going to the [A]end of the [D]line[D]
[D] [D] [D] [A] [G] [D] [D] [D] [A] [D] [D] [D] [D] [A] [G] [D] [D] [D] [A] [D] [D]  
 
 G:--------|--------|--------|--------|--------|--------|--------|--------|----|
 D:0-0-0-0-|0-------|0-0-0-0-|0---0---|0-0-0-0-|0-------|0-0-0-0-|0---0-0-|0-0-|
 A:--------|--0----0|--------|--0---02|--------|--0----0|--------|--0-----|---0|
 E:--------|----3-3-|--------|--------|--------|----3-3-|--------|--------|----|

[VERSE] 
[G] Don't have to be a[G]shamed of the car I [D]drive (At the [D]end of the line)
[G] I'm just glad to [G]be here, happy to [D]be alive (At the [D]end of the line)
[G]And it don't [G]matter if you're [D]by my side (At the [D]end of the line)
I'm [A]satisified[A]
[G] [G] [D] [D] [G] [D] [D] [D] [G] [G] [D] [D] [A] [A]  
 
 G:--------|--------|--------|--------|--------|--------|--------|
 D:--------|0-0-0-0-|--------|0-0-0-0-|--------|0-0-0-0-|--------|
 A:--------|--------|-------0|--------|-------0|--------|0-0-0-04|
 E:3-3-3-3-|--------|3-3-3-3-|--------|3-3-3-3-|--------|--------|

[CBORUS] 
Well it's [D]al-[D]right, [D]even if you're [A]old and [G]gray
Well it's [D]al-[D]right, [D]you still got [A]something to [D]say
Well it's [D]al-[D]right, re[D]member to [A]live and let [G]live
Well it's [D]al-[D]right, [D]best you can [A]do is for[D]give
[D] [D] [D] [A] [G] [D] [D] [D] [A] [D] [D] [D] [D] [A] [G] [D] [D] [D] [A] [D]  
 
 G:--------|--------|--------|--------|--------|--------|--------|--------|
 D:0-0-0-0-|0-------|0-0-0-0-|0---0---|0-0-0-0-|0-------|0-0-0-0-|0---0---|
 A:--------|--0----0|--------|--0---02|--------|--0----0|--------|--0---02|
 E:--------|----3-3-|--------|--------|--------|----3-3-|--------|--------|

[CBORUS] 
Well it's [D]al-[D]right, [D]riding a[A]round in the [G]breeze
Well it's [D]al-[D]right, [D]if you live the [A]life you [D]please
Well it's [D]al-[D]right, [D]even if the [A]sun don't [G]shine
Well it's [D]al-[D]right, we're [D]going to the [A]end of the [D]line[D]
[D] [D] [D] [A] [G] [D] [D] [D] [A] [D] [D] [D] [D] [A] [G] [D] [D] [D] [A] [D] [D]  
 
 G:--------|--------|--------|--------|--------|--------|--------|--------|----|
 D:0-0-0-0-|0-------|0-0-0-0-|0---0---|0-0-0-0-|0-------|0-0-0-0-|0---0-0-|0-0-|
 A:--------|--0----0|--------|--0---02|--------|--0----0|--------|--0-----|----|
 E:--------|----3-3-|--------|--------|--------|----3-3-|--------|--------|----|

[CODA] 
[G] [D] [G] [D] [G] [A] [E] [D]  
 
 G:--------|--------|--------|--------|
 D:5-5-0-0-|5-5-0-0-|5-5-7-5-|0-------|
 A:--------|--------|--------|--------|
 E:--------|--------|--------|--------|

Tabbed by Michael Oxner
moxner@nbnet.nb.ca

Important: The song above is NOT stored on the Chordie server. The original song is hosted at www.guitartabs.cc. Chordie works as a search engine and provides on-the-fly formatting. Chordie does not index songs against artists'/composers' will. To remove this song please click here.

Text color:
Chord color:
Chord grids: 
Font size:    
Page size: 

A D E G
Rate #1 of 9 versions

Login - add to songbook

SHARE PAGE  




You need to log in to post comments