Guitar Tabs, Chords and Lyrics
Server problems seems to be fixed. Chordie has been experiencing problems with songs disappearing. These issues now seems to be fixed, but still verifying the fix. If you find anything strange, please email admin@chordie.com.


Need You Need You  The Whigs

 
 ----------------------------------------------------------------------------

Need You Need You - The Whigs
 
 ----------------------------------------------------------------------------

Tabbed by: adslam3
Another fairly easy one from The Whigs, yet the song is still rocking.
There are only four chords in the whole thing, but Parker manages
to switch between open chords and barre chords.
There is a chords version with lyrics at the bottom.
Tuning: EADGBe (Standard)
INTRO/VERSE (Repeat as necessary)
[A] [G] [D]  
 
 e|--0-0-0-0-0-0-0-0-3-3-3-3-2-2-2-2------------------------------------------|
 B|--2-2-2-2-2-2-2-2-3-3-3-3-3-3-3-3------------------------------------------|
 G|--2-2-2-2-2-2-2-2-0-0-0-0-2-2-2-2------------------------------------------|
 D|--2-2-2-2-2-2-2-2-0-0-0-0-0-0-0-0------------------------------------------|
 A|--0-0-0-0-0-0-0-0-2-2-2-2--------------------------------------------------|
 E|------------------3-3-3-3--------------------------------------------------|

CHORUS (0:37)(Repeat as necessary)
[A] [G] [D]  
 
 e|-5-|-----------5--3-3-----5--5-5------------------------------------------|
 B|-5-|-----------5--3-3-----7--5-5------------------------------------------|
 G|-6-|-----------6--4-4-----7--6-6------------------------------------------|
 D|-7-|-----------7--5-5-----7--7-7------------------------------------------|
 A|-7-|-----------7--5-5-----5--7-7------------------------------------------|
 E|-5-|-----------5--3-3--------5-5------------------------------------------|

Back to intro/verse and chorus.
NOTE: The ending of the 2nd chorus is a little different, I'll try to demonstrate that there.
It starts around 1:40...and it kind of speeds things up a little with
a slightly different strum pattern.
 
 e|-5-5-|--3-3---5-5-5-5---3-3---5-5-5-5---3-3----5-5-5-5--5-5-5-5-----------|
 B|-5-5-|--3-3---7-7-5-5---3-3---7-7-5-5---3-3----7-7-7-7--7-7-7-7-----------|
 G|-6-6-|--4-4---7-7-6-6---4-4---7-7-6-6---4-4----7-7-7-7--7-7-7-7-----------|
 D|-7-7-|--5-5---7-7-7-7---5-5---7-7-7-7---5-5----7-7-7-7--7-7-7-7-----------|
 A|-7-7-|--5-5---5-5-7-7---5-5---5-5-7-7---5-5----5-5-5-5--5-5-5-5-----------|
 E|-5-5-|--3-3-------5-5---3-3-------5-5---3-3-------------------------------|

(1:50)
 
 e|--3-3-3-3--5-5-5-5-----------3-3-3-3--2-2-2-2-----------------------------|
 B|--3-3-3-3--7-7-7-7-----------3-3-3-3--3-3-3-3-----------------------------|
 G|--4-4-4-4--7-7-7-7-----------0-0-0-0--2-2-2-2-----------------------------|
 D|--5-5-5-5--7-7-7-7-----OR----0-0-0-0--0-0-0-0-----------------------------|
 A|--5-5-5-5--5-5-5-5-----------2-2-2-2--------------------------------------|
 E|--3-3-3-3--------------------3-3-3-3--------------------------------------|

Now continue with the intro/verse, BUT stop on 320033 on 4th time.
Ending (1st part) (2:04) - Repeat as necessary
Em (8 Times) D (8 Times) A (16 Times)
 
 e|-7-7-7-7-7-7-7-7-5-5-5-5-5-5-5-5-0-0-0-0-0-0-0-0-0-0-0-0-0-0-0-0----------|
 B|-8-8-8-8-8-8-8-8-7-7-7-7-7-7-7-7-2-2-2-2-2-2-2-2-2-2-2-2-2-2-2-2----------|
 G|-9-9-9-9-9-9-9-9-7-7-7-7-7-7-7-7-2-2-2-2-2-2-2-2-2-2-2-2-2-2-2-2----------|
 D|-9-9-9-9-9-9-9-9-7-7-7-7-7-7-7-7-2-2-2-2-2-2-2-2-2-2-2-2-2-2-2-2----------|
 A|-7-7-7-7-7-7-7-7-5-5-5-5-5-5-5-5-0-0-0-0-0-0-0-0-0-0-0-0-0-0-0-0----------|
 E|--------------------------------------------------------------------------|

( Tab from: http://www.guitartabs.cc/tabs/t/the_whigs/need_you_need_you_crd.html )
Ending (2nd part) (2:26) - Repeat as necessary
[A] [D]  
 
 e|-0x0x0x0x0-2222-----------------------------------------------------------|
 B|-2x2x2x2x2-3333-----------------------------------------------------------|
 G|-2x2x2x2x2-2222--------End on an A----------------------------------------|
 D|-2x2x2x2x2-0000-----------------------------------------------------------|
 A|-0x0x0x0x0----------------------------------------------------------------|
 E|--------------------------------------------------------------------------|

Pretty easy song and I garuntee you can get the hand of it.
Here is a Chords version with lyrics
INTRO
A - A - G - D (4 times)
VERSE 1
[A]Well the rights, well they [G]dangle [D]in my [A]head
Never [G]acted [D]before on her [A]actions,
Reactions were [G]never [D]really [A]good[G] [D]
[A]It's alright, hesi[G]tation [D]in my [A]brain
Things are [G]standing [D]still
But they're [A]standing they're standing they're [G]standing[D]
where they [A]should[G] [D]
CHORUS
[A] My [G]finger could bring [D]death to us [A]all,
and I [G]need you need you n[D]eed you[A]
[A] [-] [A] [-] [G] [-] [D]  
VERSE 2
In a [A]taste, I'll [G]solute [D]boomer[A]angs
I could [G]throw you, [D]but now
you're re[A]turning with burning re[G]placement [D] figurines
[A] [-] [A] [-] [G] [-] [D]  
And you're [A]right
And I've [G]never [D]been so [A]wrong
I'll [G]admit that's [D]why we are [A]dying and fighting…
But we're [G]surviving[D] it… isn't fun
CHORUS
[A] My [G]finger could bring [D]death to us [A]all,
And I [G]need you need you [D]need you[A]
CHORUS PART 2
Oh my [G]finger [D]it [D]it [A]could
Oh my [G]finger [D]it [D]it [A]could
Oh my [G]finger [D]it [D]it [D]ah [D]it [D]it [D]it [D]it[D] [G] [D]
[A] [-] [A] [-] [G] [-] [D]  
[A] [-] [A] [-] [G] [-] [D]  
[A] [-] [A] [-] [G] [-] [D]  
[A] [-] [A] [-] [G]  
Ending
[Em]Crash[D]ing down on [A]me
[Em]Won't [D]you just let me [A]breathe?
[Em]Crash[D]ing down on [A]me
[Em]Won't [D]you just let me
[A]Da-da [A]da-[A]da [A]da-[A]da ah [D]da[D]da[D]da[D]da
************************************
| / slide up
| \ slide down
| h hammer-on
| p pull-off
| ~ vibrato
| + harmonic
| x Mute note
| b Bend
| pb Pre-bend
| br Bend release
| pbr Pre-bend release
| brb Bend release bend
************************************

Important: The song above is NOT stored on the Chordie server. The original song is hosted at www.guitartabs.cc. Chordie works as a search engine and provides on-the-fly formatting. Chordie does not index songs against artists'/composers' will. To remove this song please click here.

Text color:
Chord color:
Chord grids: 
Font size:    
Page size: 

A D Em G
Rate #2 of 3 versions

Login - add to songbook

SHARE PAGE  




You need to log in to post comments