Guitar Tabs, Chords and Lyrics
Server problems seems to be fixed. Chordie has been experiencing problems with songs disappearing. These issues now seems to be fixed, but still verifying the fix. If you find anything strange, please email admin@chordie.com.


Wait for Me  Theory of a Deadman

This is my first tab but it sounds right to me:
Riley Fair (refair00@gmail.com)
The chords used are not a normal G and A.
I used their names so I could get the placing over the lyrics fairly accurate.
The G is tricky but sounds really good to me. Here are the chords to use:
 
 -2- -2- -0-
 -3- -3- -3-
 -0- -2- -2-
 G -0- D -0- A -2-
 -2- -0- -0-
 -3- -x- -x-

Tuning: Eb, Bb, F#, C#, Ab, Eb
Intro:D - A - G - A
You are not a[D]lone ton[A]ight
Imagine me th[G]ere by your s[A]ide
It's so hard to b[D]e here so far aw[A]ay from y[G]ou[A]
I'm counting the d[D]ays till I'm finally d[A]one
I'm counting them d[G]own, yeah, one by [A]one
It feels like for[D]ever till I ret[A]urn to yo[G]u[A]
But it h[G]elps me on those lonely nights[A]
It's that [G]one thing that keeps me alive
Kn[A]owing that you w[D]ait f[A]or m[G]e[A]
Ever so p[D]ati[A]entl[G]y[A]
[D] [-] [A]  
No one else kn[D]ows the feeling ins[A]ide
We hang up the ph[G]one without saying goodn[A]ight
Because it's the s[D]ound of your v[A]oice that brings me h[G]ome[A]
It's n[G]ever been easy to say[A]
But it's [G]easier when I've gone away
Kn[A]owing that you w[D]ait f[A]or m[G]e[A]
Ever so p[D]ati[A]entl[G]y[A]
Yeah, you're [D]everything I've ever dr[A]eamed of having and.
It's [G]everything I need from y[A]ou just knowing that you w[D]ait f[A]or m[G]e[A]
[G]What I'd give what I'd do
Knowing I'm not th[G2]ere for y[G]ou
Makes it so hard to leave[G2] [G]
[G]What I'd give what I'd do
Anything to get me h[G2]ome to y[G]ou
[G]And this time I'll stay[A]
And you w[D]ait f[A]or m[G]e[A]
Ever so p[D]ati[A]entl[G]y[A]
Yeah, you're [D]everything I've ever dr[A]eamed of having and.
It's [G]everything I need from y[A]ou just knowing that you w[D]ait f[A]or m[G]e[A]
Chords during solo: D - A - G - A
or
 
 --------------------------------------------------------|
 --------------------------------------------------------|
 ---7h9-11-9-11-9-----7h9-11-9-11-9-----7h9-11-9-11-9-7h9| x2
 --------------------------------------------------------|
 --------------------------------------------------------|
 --------------------------------------------------------|

Also going on in every chorus in the background is guitar 2:
 
 14-12----14-12-----12-------12------|
 ------12-------12-----12-10----12-10|
 ------------------------------------|
 ------------------------------------| Repeat through chorus
 ------------------------------------|
 ------------------------------------|

Thanks much.

Important: The song above is NOT stored on the Chordie server. The original song is hosted at www.guitartabs.cc. Chordie works as a search engine and provides on-the-fly formatting. Chordie does not index songs against artists'/composers' will. To remove this song please click here.

Text color:
Chord color:
Chord grids: 
Font size:    
Page size: 

A D G G2
Rate #1 of 4 versions

Jango Player

Login - add to songbook

SHARE PAGE  




You need to log in to post comments