Guitar Tabs, Chords and Lyrics
Major upgrade!! After one year development the new version of Chordie is now online! Please give feedback.


Angel From the Coast   Thin Lizzy

 
 |--------------------------------------|
 |-7---8--/10-10-10/13-x-12--10-10-10---|
 |-7-x-7-x/9--9--9-/12-x-12--11-11-11---|
 |------------------------------------0-|
 |--------------------------------------|
 |--------------------------------------| Rpt 4 X

 


 


 Guitar 2 (distorted) enters 2nd time


 ~~


 

 
 |-------------------------------------------|
 |------------------6------------------------|
 |------7p5-7p5-7p5----7---7p5-7p5-7p5-------|
 |-12\0------------------0-------------3--0--|
 |-------------------------------------------|
 |-------------------------------------------|

 


 


 ~~


 

 
 |----------------------------------------|
 |---------------6------------------------|
 |---7p5-7p5-7p5----7---7p5-7p5-7p5-------|
 |-0------------------0-------------3--0--|
 |----------------------------------------|
 |----------------------------------------|

 


 


 Verse


 


 Guitar 1


 


 Light overdrive


 

 
 |--------------------------------------|
 |-7---8--/10-10-10/13-x-12--10-10-10---|
 |-7-x-7-x/9--9--9-/12-x-12--11-11-11---|
 |------------------------------------0-|
 |--------------------------------------|
 |--------------------------------------| Rpt 4 X

 


 


 Guitar 2


 

 
 [-----PM----]~~~ h[----PM---]~~~
 |--------------------------------------|
 |--------------------------------------|
 |---77-77-77-77-7---5-77-77-77-77-7----|
 |-0-00-00-00-00-----0-00-00-00-00------|
 |--------------------------------------|
 |--------------------------------------| Rpt 4 X

 


 


 Chorus


 


 

 
 |---------------------------|
 |---------------------------|
 |---------------------------|
 |---------------------------|
 |-----5--/9--\7---(7)-------|
 |-0-2-3--/7--\5---(5)-------| Rpt 3 X
 |----------------------------|
 |----------------------------|
 |----------------------------|
 |----------------------------|
 |-0-2-3--2--4------(4)-------|
 |-----------2------(2)-------|

 


 


 Rpt Above


 


 

 
 |-------|
 |----3--|

 


 |-2--2--|


 |-2--0--|


 

 
 |-0-----|
 |-------|

 


 


 Rpt Riff A


 


 

 
 |-------|

 


 |-3-3-3-|


 |-2-2-2-|


 |-0-0-0-|


 

 
 |-------|
 |-------|

 


 


 Rpt Riff A


 


 Rpt 2nd half of intro


 


 Rpt Verse and Chorus


 


 Harmonised lead


 


 Guitar 1


 ~~~~ ~~~~~ ~~~~~ ~~~~


 

 
 [-------------------------------------------------------------------|
 [----10-12----------------------------------------------------------|
 [-12-------12-11---------11-----------------7-----------------------|
 [------------------12-14----12--10\9----7-9---9-7--------7----------|
 [----------------------------------------------------7-9---9-7\5----|
 [-------------------------------------------------------------------|

 


 [Guitar


 [ ~~~~ ~~~~ ~~~~~ ~~~~


 

 
 [-------------------------------------------------------------------|
 [-------------------------------------------------------------------|
 [-------12---------------7------------------4-----------------------|
 [-12-14----14-12---7--9-----9--7--5-----4-5---5-4--------4----------|
 [----------------------------------------------------4-5---5-4\2----|
 [-------------------------------------------------------------------|

 


 


 Guitar 1


 ~~~~ ~~~~~ ~~~~~ ~~~~


 

 
 [-------------------------------------------------------------------|
 [----10-12----------------------------------------------------------|
 [-12-------12-11---------11-----------------7-----------------------|
 [------------------12-14----12--10\9----7-9---9-7--------7----------|
 [----------------------------------------------------7-9---9-7\5----|
 [-------------------------------------------------------------------|

 


 [Guitar


 [ ~~~~ ~~~~ ~~~~~ ~~~~


 

 
 [-------------------------------------------------------------------|
 [-------------------------------------------------------------------|
 [-------12---------------7------------------------------------------|
 [-12-14----14-12---7--9-----9--7--5----------------------0----------|
 [-------------------------------------------5--------0-2---2-0------|
 [---------------------------------------5-7---7-5--------------3----|

 


 


 Guitar 1


 

 
 |---------------------------------------|
 |---10-----101010---14-----14-14-14-14--|
 |-xx9x-x-x-9-9-9--xx13-x-x-13-13-13-13--|
 |---------------------------------------|
 |---------------------------------------|
 |---------------------------------------| Rpt 4 X

 


 


 Guitar 2 plays this pattern over the top of guitar 1


 


 

 
 [---------PM--------]
 |-----------------------|
 |-----------------------|
 |---6-9-9p6---9-6-9-6---|
 |-0---------9-----------|
 |-----------------------|
 |-----------------------| Rpt 3 X

 


 [ Tab from: bttp://www.guitartabs.cc/tabs/t/tbin_lizzy/angel_from_tbe_coast_tab_ver_3.btml ] 


 

 
 [-----PM----]
 |---------------------|
 |-------------7b------|
 |---6-9-9p6-------9b--|
 |-0---------9---------|
 |---------------------|
 |---------------------|
 [---------PM--------]
 |-----------------------|
 |-----------------------|
 |---6-9-9p6---9-6-9-6---|
 |-0---------9-----------|
 |-----------------------|
 |-----------------------|
 [-----PM----]
 |---------------------|
 |-------------12b-12--|
 |---6-9-9p6-----------|
 |-0---------9---------|
 |---------------------|
 |---------------------|
 [---------PM--------]
 |-----------------------|
 |-----------------------|
 |---6-9-9p6---9-6-9-6---|
 |-0---------9-----------|
 |-----------------------|
 |-----------------------|
 [-----PM----]
 |------------------------|
 |-------------7b-p5---7\-|
 |---6-9-9p6---------6----|
 |-0---------9------------|
 |------------------------|
 |------------------------|

 


 


 Guitar solo


 ~~~~


 

 
 |----------------------------------------17------------------------|
 |-------5---5-7p5--10----10-12p10-12-14-----17---------------------|
 |-6p4-6---6-----------11-------------16b-------16br16p14-16p14-----|
 |------------------------------------------------------------------|
 |------------------------------------------------------------------|
 |------------------------------------------------------------------|

 


 


 Backing for solo


 


 

 
 |-5-5-5/10-10-10-5-5-5/1414-1414--|
 |-5-5-5/10-10-10-5-5-5/1515-1515--|
 |-6-6-6/11-11-11-6-6-6/-----------|
 |-7-7-7/12-12-12-7-7-7/-----------|
 |---------------------------------|
 |---------------------------------|

 


 


 Guitar 1


 

 
 |---------------------------------------|
 |---10-----101010---14-----14-14-14-14--|
 |-xx9x-x-x-9-9-9--xx13-x-x-13-13-13-13--|
 |---------------------------------------|
 |---------------------------------------|
 |---------------------------------------|

 


 


 Guitar 2 plays this over guitar 1


 


 

 
 [---------PM--------]
 |-----------------------|
 |-----------------------|
 |---6-9-9p6---9-6-9-6---|
 |-0---------9-----------|
 |-----------------------|
 |-----------------------|
 [-----PM----]
 |------------------------|
 |-------------7b-p5---7\-|
 |---6-9-9p6---------6----|
 |-0---------9------------|
 |------------------------|
 |------------------------|
 |-2------(2)-----------------------3------(3)---------|
 |-3------(3)-------1------(1)------3------(3)---------|
 |-2------(2)-------0------(0)------0------(0)---------|
 |-0------(0)-------2------(2)------0------(0)---------|
 |------------------3------(3)------2------(2)---------|
 |----------------------------------3------(3)---------| Rpt 3 X
 |-2------(2)-----------------------3-3----(3)---------|
 |-3------(3)-------1------(1)------3-3----(3)---------|
 |-2------(2)-------0------(0)------0-0----(0)---------|
 |-0------(0)-------2------(2)------0-0----(0)---------|
 |------------------3------(3)------2-3----(2)---------|
 |----------------------------------3-3----(3)---------|

 


 


 Guitar 1


 

 
 |-------------------------------------|
 |---10-----101010---10----/14-14-14---|
 |-xx9x-x-x-9-9-9--xx9--x-x/13-13-13---|
 |-------------------------------------|
 |-------------------------------------|
 |-------------------------------------| Rpt 4 X

 


 


 Guitar 2 plays this over guitar 1


 


 [PM] PM


 

 
 |-----------------------------------|
 |-----------------------------------|
 |-----------------------------------|
 |-0-2-2222p0-------0-2--2-2-2-22-2--|
 |------------0-0-0------------------|
 |-----------------------------------| Rpt
 [---------PM--------]
 |-----------------------|
 |-----------------------|
 |---6-9-9p6---9-6-9-6---|
 |-0---------9-----------|
 |-----------------------|
 |-----------------------|
 [-----PM----] ~~
 |------------------------|
 |-------------7b-p5---7--|
 |---6-9-9p6---------6----|
 |-0---------9------------|
 |------------------------|
 |------------------------|
 [---------PM--------]
 |-----------------------|
 |-----------------------|
 |---6-9-9p6---9-6-9-6---|
 |-0---------9-----------|
 |-----------------------|
 |-----------------------|
 [-----PM----]
 |--------------9-\7--|
 |--------------9-\7--|
 |---6-9-9p6----------|
 |-0---------9--------|
 |--------------------|
 |--------------------|
 [---------PM--------]
 |-----------------------|
 |-----------------------|
 |---6-9-9p6---9-6-9-6---|
 |-0---------9-----------|
 |-----------------------|
 |-----------------------|
 [-----PM----] ~~
 |------------------------|
 |-------------7b-p5---7--|
 |---6-9-9p6---------6----|
 |-0---------9------------|
 |------------------------|
 |------------------------|

 


 


 Guitar 1


 Light overdrive


 

 
 |----------------------|
 |13-x-12--10--------10-|
 |12-x-12--11-1111-11---|
 |----------------------|
 |----------------------|
 |----------------------|

 


 


 Guitar 2


 ~~


 

 
 |---------------------|
 |---------------------|
 |----7p5-7p5-7p5------|
 |-0-------------3--0--|
 |---------------------|
 |---------------------|

 


 


 Rpt Verse


 


 2nd time guitar 2 plays this


 Guitar 2


 

 
 [-----PM----]~~~ h[----PM---]
 |-------------------------------------------|
 |-------------------------------------------|
 |---77-77-77-77-7---5-77-77-77-77-7-5-7p5---|
 |-0-00-00-00-00-----0-00-00-00-00-0-0-0-0-7-|
 |-------------------------------------------|
 |-------------------------------------------|

 


 


 Guitar 2


 

 
 [-----PM----]~~~ h[----PM---] ~~~~~~
 |------------------------------------------|
 |----------------------------------12b-----|
 |---77-77-77-77-7---5-77-77-77-77--12b-----|
 |-0-00-00-00-00-----0-00-00-00-00----------|
 |------------------------------------------|
 |------------------------------------------|

 


 


 Rpt Chorus


 


 

 
 |-------|
 |----3--|

 


 |-2--2--|


 |-2--0--|


 

 
 |-0-----|
 |-------|


Important: The song above is NOT stored on the Chordie server. The original song is hosted at www.guitartabs.cc. Chordie works as a search engine and provides on-the-fly formatting. Chordie does not index songs against artists'/composers' will. To remove this song please click here.

This song is displayed as text-only. Transposing and tuning is only available for chordpro-songs.
Rate #1 of 3 versions

Login - add to songbook

SHARE PAGE  




You need to log in to post comments