Guitar Tabs, Chords and Lyrics
Major upgrade!! After one year development the new version of Chordie is now online! Please give feedback.


Still in Love With You  Thin Lizzy

Intro
 
 E--------------------------------------------12--10----------------|
 B--(13)--15---13-15-13----13--15-------------13--12----10---8---10-|
 G------------------------------------------------------------------|
 D------------------------------------------------------------------|
 A------------------------------------------------------------------|
 E------------------------------------------------------------------|
 E-------------------------------------------------------------------|
 B------8/10----3/5--------------------------------------------------|
 G------------------------------5-----7-----5-----------------5------|
 D------------------------------------------(7)----------------------|(7)
 A-------------------------------------------------------------------|
 E-------------------------------------------------------------------|

Chords:
[Am]THINK I?LL JUST FALL TO P[Dm]IECES
[G]IF I DON?T FIND SOMETHING [C]ELSE TO DO[Am]
THIS SADNESS NEVER CEASES[Dm]
[G]I?M STILL IN LOVE WI[C]TH YOU
[Am]MY HEAD IT KEEPS ON REELIN?[Dm] [G]
IT?S GOT ME IN A CRAZY STATE[C]
DA[Am]RLIN? DARLIN? DARLIN? I[Dm]S THIS TH[G]E END[C] [Am7]
( Tab from: http://www.guitartabs.cc/tabs/t/thin_lizzy/still_in_love_with_you_tab.html )
TH[Am]EY SAY TIME HAS A WAY OF HEALING[Dm]
DRIE[G]S ALL THE TEARS FROM YO[C]UR EYES
[Am]BUT DARLIN? IT?S THIS EMPTY FEELI[Dm]N?
M[G]Y HEART CAN?T DISGUISE[C]
[Am]AFTER ALL THAT WE?VE BEEN T[Dm]HROUGH
[G]I TRY MY BEST BUT IT?S NO USE[C]
[Am]I GUESS I?LL KEEP ON LOVING YOU[Dm]
[G]IS THIS THE END[C] [Am7]
SOLO: I?VE NOT YET COMPLETED THE SOLO WHICH HAS BEEN
HOLDING ME UP.IT?S MUCH MORE COMPLEX THAN I HAD
PREVIOUSLY THOUGHT AND IT?S THE ABSOLUTE BEST
I?VE EVER HEARD BY ANY GROUP SO I WILL NOT POST
IT UNTIL I?M SATISFIED WITH IT.
[Am]NOW THAT IT?S ALL OVER[Dm]
WOM[G]AN THERE?S SOMETHING I THINK YOU SHO[C]ULD KNOW
BA[Am]BY BABY THINK IT[Dm] OVER
JU[G]ST ONE TIME BEF[C]ORE YOU GO
C[Am]ALL ON ME BABY[Dm]
[G]IF THERE?S ANYTHING I CAN D[C]O FOR YOU[Am]
CALL ON ME BABY[Dm]
HE[G]LP ME SEE IT THROUGH[C] [Am7]
(OUTRO) Am Dm
CALL ON ME BABY
WHY DON?T YOU CALL ON ME BABY
AH HELP ME SEE IT THROUGH
SO IN LOVE WITH YOU

Important: The song above is NOT stored on the Chordie server. The original song is hosted at www.guitartabs.cc. Chordie works as a search engine and provides on-the-fly formatting. Chordie does not index songs against artists'/composers' will. To remove this song please click here.

Text color:
Chord color:
Chord grids: 
Font size:    
Page size: 

Am Am7 C Dm G
Rate #1 of 5 versions

Login - add to songbook

SHARE PAGE  




You need to log in to post comments