Guitar Tabs, Chords and Lyrics
Server problems seems to be fixed. Chordie has been experiencing problems with songs disappearing. These issues now seems to be fixed, but still verifying the fix. If you find anything strange, please email admin@chordie.com.


Jesus, Light of the World  Third Day

Jesus, Light of the World
Third Day
INTRO (2X)
 
 e--10------10---10~9------7----7---7~5---5--3-----0------5------|
 B------10--------------------7-----------------------7-------7--|
 G---------------------------------------------------------------|
 D---------------------------------------------------------------|
 A---------------------------------------------------------------|
 E---------------------------------------------------------------|

VERSE 1
[D]The most beautiful [A]night of the [D]year ,
[G]All the stars, light up the [A]sky.
And the [D]city is [A]sparkling with [Bmin]silver and [D]gold
from a [G]million points of [A]light,
A reflection o[G]f something thatís deeper within,[A]
[Bmin]just a flicker of something [A]more.
CHORUS
( Tab from: http://www.guitartabs.cc/tabs/t/third_day/jesus_light_of_the_world_crd_ver_3.html )
[D]Jesus, [A]light of the [Bmin]world,
[G]Shine through the [D]darkness [G]bright as the [A]day.
[D]Jesus, l[A]ight of the [Bmin]world,
[G]Shine in our [D]hearts [G]show us the [A]way, [D]tonight.
INTRO
VERSE 2
[D]Who is this [A]child in the [D]manger?
Kings bow [G]down and angels [A]sing.
[D]The Lord of the [A]universe has come[Bmin] here to [D]save us,
[G]A precious of[A]fering,
[G]All the heavens above and the eart[A]h below,
[Bmin]Are filled with the light of your l[A]ove.
CHORUS
INSTRUMENTAL
[Bmin] [A] [D] [A]  
[A] [G] [A]  
 
 e--10-----10-----9-----9-----7----7------5----5-----|
 B-----10-----10-----10---10-----7----7------5----5--|
 G---------------------------------------------------|
 D---------------------------------------------------|
 A---------------------------------------------------|
 E---------------------------------------------------|

CHORUS (2X)

Important: The song above is NOT stored on the Chordie server. The original song is hosted at www.guitartabs.cc. Chordie works as a search engine and provides on-the-fly formatting. Chordie does not index songs against artists'/composers' will. To remove this song please click here.

Text color:
Chord color:
Chord grids: 
Font size:    
Page size: 

A Bmin D G
Rate #1 of 11 versions

Login - add to songbook

SHARE PAGE  



You need to log in to post comments