Guitar Tabs, Chords and Lyrics
Update 25:10. 13:00. Site is back up running again. Songbooks are recovered. Woring on getting search back up..


Run Letter  Throwing Muses

by kristin hersh
from 'house tornado'
transcribed by edmond hum (rlp@gold.interlog.com)
[B7] [D/E] [A/E] [EaddF] [F#addE]  
 
 e----0-------0------0------2-------0---------------------
 b----0-------3------0------0-------2---------------------
 g----2-------2------2------1-------3---------------------
 d----1-------0------2------2-------4---------------------
 a----2---------------------2-------4---------------------
 e----------------------------------2---------------------
 --- start ---

[B7] [D/E] [A/E]  
( Tab from: http://www.guitartabs.cc/tabs/t/throwing_muses/run_letter_tab.html )
 
 e---------------0------------------0-------0-----0------
 b-------0---------0-------0----------0-----3-----0------
 g----2----2---2--------2-----2---2---------2-----2------
 d----1--------1--------1---------1---------0-----2------
 a----2--------2--------2---------2----------------------
 e-------------------------------------------------------

so many tears i'm shaking out[D/E]
squeezing [A/E]them out and bend it[B7]
the way things work together
[D/E]if i write this letter
you can [A/E]bend it
[B7]please hope
can i [D/E]give hope
the sky won't fall?
just [A/E]look[B7]
if i mail this letter
you can [D/E]send it back to me F7:F7  A/E
if you can dance
if you can live
i lo[B7]ve you
i love you
i love you
knocked me on the head and [D/E]sent me spinning
it was a [A/E]blast
i can't remember the last time[B7]
stand between two poles and [D/E]hold your arms up
i'll kick me [A/E]over your head and stock down[B7]
carry him carry h[D/E]im carry him and [A/E]pray
[B7]if i mail this letter
you can [D/E]send it back to me
just [A/E]look
i lo[B7]ve you
i love you
i love you
[E]B7 [EaddF#]E B7 A ?[A] [F#addE] [E]
[-]E B ? A B A
[-]  
[E]it isn't fair
it isn't fair
hope you can hold your head up
[-]  
[A] [F#] [E]  
[-]  F7tF7  i can pray if you meet my gaze
[B]i can laugh if you [A]bring me home and [B]dry me off
[-]  
[E] [B] [A] [B] [A]  
[-]  
[E]it isn't fair
it isn't fair
hope you can hold your head up
[-]  
[A] [F#] [E]  
[-]  
[B]count your cans and [A]hold them up and [B]count them all
[B7]a piece of ground where i can [D/E]lay my head
where i can [A/E]lay a piece of my heart
[B7]i don't remember i[D/E] don't remember
if i [A/E]saw God there or not
[B7]give me home give me [D/E]all give me what i want
[A/E]i want a place at the door
[B7]i surrender i [D/E]surrender
[A/E]my place my goods my day[B7] [D/E] [B7]
 
 --- end ---


Important: The song above is NOT stored on the Chordie server. The original song is hosted at www.guitartabs.cc. Chordie works as a search engine and provides on-the-fly formatting. Chordie does not index songs against artists'/composers' will. To remove this song please click here.

Text color:
Chord color:
Chord grids: 
Font size:    
Page size: 

A A/E B B7 D/E E EaddF F# F#addE

Notice: Trying to get property of non-object in /var/www/chordiepro/include/panel.inc on line 79
Rate #1 of 5 versions

Jango Player

Login - add to songbook


Notice: Trying to get property of non-object in /var/www/chordiepro/include/panel.inc on line 308

SHARE PAGE  



You need to log in to post comments