Guitar Tabs, Chords and Lyrics
Update 25:10. 13:00. Site is back up running again. Songbooks are recovered. Woring on getting search back up..


Until We Touch the Burning Sun   Thunderstone

 
 |---------------|
 |---------------|
 |-#-#--#-#--#-#-|
 |-2-2--2-2--2-2-|
 |-2-2--2-2--2-2-|
 |-0-0--0-0--0-0-|
 |---------------|
 |---------------|
 |-#-#--#-#--#-#-|
 |-2-2--2-2--2-2-|
 |-2-2--2-2--2-2-|
 |-0-0--0-0--0-0-|
 |--------|-----------------|
 |--------|-----------------|
 |--------|-----------------|
 |--------|-#-#--#-#--#-2~~-|
 |-3/12\3-|-2-2--2-2--2-2~~-|
 |-3/12\3-|-0-0--0-0--0-0~~-|
 |-----------------|
 |-----------------|
 |-----------------|
 |-#-#--#-#--#-2~~-|
 |-2-2--2-2--2-2~~-|
 |-0-0--0-0--0-0~~-|

 


 


 [1] [2] [3] [4] [1] [2] [3] [4]  

 
 |-----------|--------------------------------------------------------------|
 |-----------|--------------------------------------------------------------|
 |-----------|*-#-#---#------#-#---#------#-#---#------#-#---#-------------*|
 |12\10------|--2-2---2-2~---2-2---2-2~---2-2---2-2~---2-2---2-2~--5--4-----|
 |------12\0-|*-2-2---2-2~---2-2---2-2~---2-2---2-2~---2-2---2-2~--5--4----*|
 |------12\0-|--0-0---0-0~---0-0---0-0~---0-0---0-0~---0-0---0-0~--3--2-----|

 


 


 [1] [2] [3] [4] [1] [2] [3] [4]  

 
 |--------------------------------------------------------------|
 |--------------------------------------------------------------|
 |*-#-#---#------#-#---#------#-#---#------#-#---#-------------*|
 |--2-2---2-2~---2-2---2-2~---2-2---2-2~---2-2---2-2~--5--4-----|
 |*-2-2---2-2~---2-2---2-2~---2-2---2-2~---2-2---2-2~--5--4----*|
 |--0-0---0-0~---0-0---0-0~---0-0---0-0~---0-0---0-0~--3--2-----|

 


 


 This is the piano part, but I tabbed it for guitar


 [1] [2] [3] [4] [1] [2] [3] [4]  

 
 |----|---------12----14----------------14-----------------------|
 |----|------12----12----12----12----13----13--------------------|
 |----|----------------------------------------------------------|
 |-2~-|---14----------------14----14-----------------------------|
 |-2~-|----------------------------------------------------------|
 |-0~-|----------------------------------------------------------|

 


 


 [1] [2] [3] [4] [1] [2] [3] [4] [1] [2] [3] [4]  

 
 |-------12----14----------------12----------10----------15-----------|
 |----12----12----12----12----------------13----13----13----13--------|
 |----------------------------14-------12----------12-----------------|
 |-14----------------14----12-------10--------------------------------|
 |--------------------------------------------------------------------|
 |--------------------------------------------------------------------|

 


 


 Verse


 [1] [2] [3] [4] [1] [2] [3] [4]  

 
 |---------12----14----------------14-----------|
 |------12----12----12----12----13----13--------|
 |----------------------------------------------|
 |---14----------------14----14-----------------|
 |----------------------------------------------|
 |----------------------------------------------|

 


 


 [1] [2] [3] [4] [1] [2] [3] [4]  

 
 |-------12----14----------------12-------10--------|
 |----12----12----12----12-------------------13-----|
 |----------------------------14-------12-------12--|
 |-14----------------14----12-------10--------------|
 |--------------------------------------------------|
 |--------------------------------------------------|

 


 


 [1] [2] [3] [4] [1] [2] [3] [4]  

 
 |---------12----14----------------14-----------|
 |------12----12----12----12----13----13--------|
 |----------------------------------------------|
 |---14----------------14----14-----------------|
 |----------------------------------------------|
 |----------------------------------------------|

 


 


 [1] [2] [3] [4] [1] [2] [3] [4] [1] [2]  

 
 |-------12----14----------------12----------10----------15-----------|
 |----12----12----12----12----------------13----13----13----13--------|
 |----------------------------14-------12----------12-----------------|
 |-14----------------14----12-------10--------------------------------|
 |--------------------------------------------------------------------|
 |--------------------------------------------------------------------|

 


 


 6 MEASURES LATER


 


 [1] [2] [3] [4] [1] [2] [3] [4]  

 
 |--------------------------------------------------------------|
 |--------------------------------------------------------------|
 |*-#-#---#------#-#---#------#-#---#------#-#---#-------------*|
 |--2-2---2-2~---2-2---2-2~---2-2---2-2~---2-2---2-2~--5--4-----|
 |*-2-2---2-2~---2-2---2-2~---2-2---2-2~---2-2---2-2~--5--4----*|
 |--0-0---0-0~---0-0---0-0~---0-0---0-0~---0-0---0-0~--3--2-----|

 


 


 [1] [2] [3] [4] [1] [2] [3] [4]  

 
 |--------------------------------------------------------------|
 |--------------------------------------------------------------|
 |*-#-#---#------#-#---#------#-#---#------#-#---#-------------*|
 |--2-2---2-2~---2-2---2-2~---2-2---2-2~---2-2---2-2~--5--4-----|
 |*-2-2---2-2~---2-2---2-2~---2-2---2-2~---2-2---2-2~--5--4----*|
 |--0-0---0-0~---0-0---0-0~---0-0---0-0~---0-0---0-0~--3--2-----|

 


 


 [1] [2] [3] [4] [1] [2] [3] [4] [1] [2] [3] [4] [1] [2] [3] [4]  

 
 |-----------------------------------------------------------|
 |-----------------------------------------------------------|
 |-7-------2-------5-----------------------------------------|
 |-7-------2-------5-------5-5-5-5-5-5-5-5-5-----------------|
 |-5-------0-------3-------3-3-3-3-3-3-3-3-3-3-2-------------|
 |-5-------0--------------------------------------3--3-2-----|

 


 


 [1] [2] [3] [4] [1] [2] [3] [4]  

 
 |----------------------------------------------------------|
 |----------------------------------------------------------|
 |-#-#---#-#---#-#---#-#---#-#---#-#---#-#---#-#------------|
 |-2-2---2-2---2-2---2-2---2-2---2-2---2-2---2-2---5---4----|
 |-2-2---2-2---2-2---2-2---2-2---2-2---2-2---2-2---5---4----|
 |-0-0---0-0---0-0---0-0---0-0---0-0---0-0---0-0---3---2----|

 


 


 [1] [2] [3] [4] [1] [2] [3] [4]  

 
 |--------------------------------------------------------------|
 |--------------------------------------------------------------|
 |*-#-#---#------#-#---#------#-#---#------#-#---#-------------*|
 |--2-2---2-2~---2-2---2-2~---2-2---2-2~---2-2---2-2~--5--4-----|
 |*-2-2---2-2~---2-2---2-2~---2-2---2-2~---2-2---2-2~--5--4----*|
 |--0-0---0-0~---0-0---0-0~---0-0---0-0~---0-0---0-0~--3--2-----|

 


 


 [1] [2] [3] [4] [1] [2] [3] [4] [1] [2] [3] [4] [1] [2] [3] [4] [1] [2] [3] [4]  

 
 |-----------------------------------------|
 |-----------------------------------------|
 |-7-------2-------5-------7-------7/------|
 |-7-------2-------5-------7-------7/------|
 |-5-------0-------3-------5-------5/------|
 |-5---------------------------------------|

 


 


 [1] [2] [3] [4] [1] [2] [3] [4]  

 
 |-------------------------------------------------------------------|
 |-------------------------------------------------------------------|
 |------------------------------------#-#-----#-#-----#-#-----#-#----|
 |----#-#-----#-#-----#-#-----#-#--7--7-7--7--7-7--7--7-7--7--7-7----|
 |-2--2-2--2--2-2--2--2-2--2--2-2--5--5-5--5--5-5--5--5-5--5--5-5----|
 |-0--0-0--0--0-0--0--0-0--0--0-0------------------------------------|

 


 


 [1] [2] [3] [4] [1] [2] [3] [4]  

 
 |-------------------------------------------------------------------|
 |-------------------------------------------------------------------|
 |----#-#-----#-#-----#-#-----#-#-----#-#-----#-#-----#-#-----#-#----|
 |-2--2-2--2--2-2--2--2-2--2--2-2--5--5-5--5--5-5--7--7-7--7--7-7----|
 |-0--0-0--0--0-0--0--0-0--0--0-0--3--3-3--3--3-3--5--5-5--5--5-5----|
 |-------------------------------------------------------------------|

 


 


 [1] [2] [3] [4] [1] [2] [3] [4]  

 
 |-------------------------------------------------------------------|
 |-------------------------------------------------------------------|
 |------------------------------------#-#-----#-#-----#-#-----#-#----|
 |----#-#-----#-#-----#-#-----#-#--7--7-7--7--7-7--7--7-7--7--7-7----|
 |-2--2-2--2--2-2--2--2-2--2--2-2--5--5-5--5--5-5--5--5-5--5--5-5----|
 |-0--0-0--0--0-0--0--0-0--0--0-0------------------------------------|

 


 


 [1] [2] [3] [4] [1] [2] [3] [4]  

 
 |--------------------------------------------|
 |--------------------------------------------|
 |----#-#-----#-#-----#-#-----#-#--5~----7~---|
 |-2--2-2--2--2-2--2--2-2--2--2-2--5~----7~---|
 |-0--0-0--0--0-0--0--0-0--0--0-0--3~----5~---|
 |--------------------------------------------|

 


 


 |----|


 |----|


 |----|


 |-2~-| HOLD 4 MEASURES


 |-2~-|


 |-0~-|


 


 [1] [2] [3] [4] [1] [2] [3] [4]  

 
 |--------------------------------------------------------------|
 |--------------------------------------------------------------|
 |*-#-#---#------#-#---#------#-#---#------#-#---#-------------*|
 |--2-2---2-2~---2-2---2-2~---2-2---2-2~---2-2---2-2~--5--4-----|
 |*-2-2---2-2~---2-2---2-2~---2-2---2-2~---2-2---2-2~--5--4----*|
 |--0-0---0-0~---0-0---0-0~---0-0---0-0~---0-0---0-0~--3--2-----|

 


 


 [1] [2] [3] [4] [1] [2] [3] [4]  

 
 |--------------------------------------------------------------|
 |--------------------------------------------------------------|
 |*-#-#---#------#-#---#------#-#---#------#-#---#-------------*|
 |--2-2---2-2~---2-2---2-2~---2-2---2-2~---2-2---2-2~--5--4-----|
 |*-2-2---2-2~---2-2---2-2~---2-2---2-2~---2-2---2-2~--5--4----*|
 |--0-0---0-0~---0-0---0-0~---0-0---0-0~---0-0---0-0~--3--2-----|

 


 


 [1] [2] [3] [4] [1] [2] [3] [4] [1] [2] [3] [4] [1] [2] [3] [4] [1] [2] [3] [4]  

 
 |-----------------------------------------|
 |-----------------------------------------|
 |-7-------2-------5-------7-------7/------|
 |-7-------2-------5-------7-------7/------|
 |-5-------0-------3-------5-------5/------|
 |-5---------------------------------------|

 


 


 [1] [2] [3] [4] [1] [2] [3] [4]  

 
 |-------------------------------------------------------------------|
 |-------------------------------------------------------------------|
 |------------------------------------#-#-----#-#-----#-#-----#-#----|
 |----#-#-----#-#-----#-#-----#-#--7--7-7--7--7-7--7--7-7--7--7-7----|
 |-2--2-2--2--2-2--2--2-2--2--2-2--5--5-5--5--5-5--5--5-5--5--5-5----|
 |-0--0-0--0--0-0--0--0-0--0--0-0------------------------------------|

 


 


 [1] [2] [3] [4] [1] [2] [3] [4]  

 
 |-------------------------------------------------------------------|
 |-------------------------------------------------------------------|
 |----#-#-----#-#-----#-#-----#-#-----#-#-----#-#-----#-#-----#-#----|
 |-2--2-2--2--2-2--2--2-2--2--2-2--5--5-5--5--5-5--7--7-7--7--7-7----|
 |-0--0-0--0--0-0--0--0-0--0--0-0--3--3-3--3--3-3--5--5-5--5--5-5----|
 |-------------------------------------------------------------------|

 


 


 [1] [2] [3] [4] [1] [2] [3] [4]  

 
 |-------------------------------------------------------------------|
 |-------------------------------------------------------------------|
 |------------------------------------#-#-----#-#-----#-#-----#-#----|
 |----#-#-----#-#-----#-#-----#-#--7--7-7--7--7-7--7--7-7--7--7-7----|
 |-2--2-2--2--2-2--2--2-2--2--2-2--5--5-5--5--5-5--5--5-5--5--5-5----|
 |-0--0-0--0--0-0--0--0-0--0--0-0------------------------------------|

 


 


 [1] [2] [3] [4] [1] [2] [3] [4] [1]  

 
 |------------------------------------------------|
 |------------------------------------------------|
 |----#-#-----#-#-----#-#-----#-#--5~----7~----2--|
 |-2--2-2--2--2-2--2--2-2--2--2-2--5~----7~----2--|
 |-0--0-0--0--0-0--0--0-0--0--0-0--3~----5~----0--|
 |------------------------------------------------|

 


 


 [1] [2] [3] [4] [1] [2] [3] [4]  

 
 |---------12----14----------------14-----------|
 |------12----12----12----12----13----13--------|
 |----------------------------------------------|
 |---14----------------14----14-----------------|
 |----------------------------------------------|
 |----------------------------------------------|

 


 


 [1] [2] [3] [4] [1] [2] [3] [4]  

 
 |-------12----14----------------12-------10--------|
 |----12----12----12----12-------------------13-----|
 |----------------------------14-------12-------12--|
 |-14----------------14----12-------10--------------|
 |--------------------------------------------------|
 |--------------------------------------------------|

 


 


 [1] [2] [3] [4] [1] [2] [3] [4]  

 
 |---------12----14----------------14-----------|
 |------12----12----12----12----13----13--------|
 |----------------------------------------------|
 |---14----------------14----14-----------------|
 |----------------------------------------------|
 |----------------------------------------------|

 


 | \with volume pedal and distortion/ |


 

 
 |----------------------------------------------|
 |---7----------------8-----10------------------|
 |----------------------------------------------|
 |----------------------------------------------|
 |----------------------------------------------|
 |----------------------------------------------|

 


 


 [1] [2] [3] [4] [1] [2] [3] [4] [1] [2]  

 
 |-------12----14----------------12----------10----------15--------------|
 |----12----12----12----12----------------13----13----13----13-----------|
 |----------------------------14-------12----------12--------------------|
 |-14----------------14----12-------10-----------------------------------|
 |-----------------------------------------------------------------------|
 |-----------------------------------------------------------------------|

 


 | \Still with volume, 2nd Guitar comes in with bottom part/ |


 

 
 |-------------------8-----10-------12-------14----15-------17-----------|
 |-12--------------------------------------------------------------------|
 |-----------------------------------------------------------------------|
 |-----------------------------------------------------------------------|
 |-----------------------------------------------------------------------|
 |-------------------------0--0--0--0--0--0--0--0--0--0--0--0--0--0--0--0|

 


 


 I haven't tabbed the solo, I don't have a good enough ear for that stuff, but


 you play this behind the solo....


 


 [1] [2] [3] [4] [1] [2] [3] [4]  

 
 |-------------------------------------------------------------------|
 |-------------------------------------------------------------------|
 |------------------------------------#-#-----#-#-----#-#-----#-#----|
 |----#-#-----#-#-----#-#-----#-#--7--7-7--7--7-7--7--7-7--7--7-7----|
 |-2--2-2--2--2-2--2--2-2--2--2-2--5--5-5--5--5-5--5--5-5--5--5-5----|
 |-0--0-0--0--0-0--0--0-0--0--0-0------------------------------------|

 


 


 [1] [2] [3] [4] [1] [2] [3] [4]  

 
 |-------------------------------------------------------------------|
 |-------------------------------------------------------------------|
 |----#-#-----#-#-----#-#-----#-#-----#-#-----#-#-----#-#-----#-#----|
 |-2--2-2--2--2-2--2--2-2--2--2-2--5--5-5--5--5-5--7--7-7--7--7-7----|
 |-0--0-0--0--0-0--0--0-0--0--0-0--3--3-3--3--3-3--5--5-5--5--5-5----|
 |-------------------------------------------------------------------|

 


 


 [1] [2] [3] [4] [1] [2] [3] [4]  

 
 |-------------------------------------------------------------------|
 |-------------------------------------------------------------------|
 |------------------------------------#-#-----#-#-----#-#-----#-#----|
 |----#-#-----#-#-----#-#-----#-#--7--7-7--7--7-7--7--7-7--7--7-7----|
 |-2--2-2--2--2-2--2--2-2--2--2-2--5--5-5--5--5-5--5--5-5--5--5-5----|
 |-0--0-0--0--0-0--0--0-0--0--0-0------------------------------------|

 


 


 [1] [2] [3] [4] [1] [2] [3] [4]  

 
 |-------------------------------------------------------------------|
 |-------------------------------------------------------------------|
 |----#-#-----#-#-----#-#-----#-#-----#-#-----#-#-----#-#-----#-#----|
 |-2--2-2--2--2-2--2--2-2--2--2-2--5--5-5--5--5-5--7--7-7--7--7-7----|
 |-0--0-0--0--0-0--0--0-0--0--0-0--3--3-3--3--3-3--5--5-5--5--5-5----|
 |-------------------------------------------------------------------|

 


 


 [1] [2] [3] [4] [1] [2] [3] [4]  

 
 |----------------------------------------------------------------|
 |----------------------------------------------------------------|
 |----#-#-----#-#-----#-#-----#-#-----#-#-----#-#-----#-#-----#-#-|
 |-4--4-4--4--4-4--4--4-4--4--4-4--5--5-5--5--5-5--5--5-5--5--5-5-|
 |-2--2-2--2--2-2--2--2-2--2--2-2--3--3-3--3--3-3--3--3-3--3--3-3-|
 |----------------------------------------------------------------|

 


 


 [1] [2] [3] [4] [1] [2] [3] [4]  

 
 |------------------------------------------------------------------|
 |------------------------------------------------------------------|
 |----#-#-----#-#-----#-#-----#-#---------2----------2------2-------|
 |-4--4-4--4--4-4--4--4-4--4--4-4--#-#--#-2--#-#---#-2--#-#-2-------|
 |-2--2-2--2--2-2--2--2-2--2--2-2--0-0--0-0--0-0---0-0--0-0-0-------|
 |------------------------------------------------------------------|

 


 


 [1] [2] [3] [4] [1] [2] [3] [4]  

 
 |----------------------------------------------------------------|
 |----------------------------------------------------------------|
 |----#-#-----#-#-----#-#-----#-#-----#-#-----#-#-----#-#-----#-#-|
 |-4--4-4--4--4-4--4--4-4--4--4-4--5--5-5--5--5-5--5--5-5--5--5-5-|
 |-2--2-2--2--2-2--2--2-2--2--2-2--3--3-3--3--3-3--3--3-3--3--3-3-|
 |----------------------------------------------------------------|

 


 


 [1] [2] [3] [4] [1] [2] [3] [4]  

 
 |-------------------------------------------|
 |-------------------------------------------|
 |----#-#-----#-#-----#-#-----#-#--5~----7~--|
 |-4--4-4--4--4-4--4--4-4--4--4-4--5~----7~--|
 |-2--2-2--2--2-2--2--2-2--2--2-2--3~----5~--|
 |-------------------------------------------|

 


 


 [1] [2] [3] [4] [1] [2] [3] [4]  

 
 |-------------------------------------------------------------------|
 |-------------------------------------------------------------------|
 |------------------------------------#-#-----#-#-----#-#-----#-#----|
 |----#-#-----#-#-----#-#-----#-#--7--7-7--7--7-7--7--7-7--7--7-7----|
 |-2--2-2--2--2-2--2--2-2--2--2-2--5--5-5--5--5-5--5--5-5--5--5-5----|
 |-0--0-0--0--0-0--0--0-0--0--0-0------------------------------------|

 


 


 [1] [2] [3] [4] [1] [2] [3] [4]  

 
 |-------------------------------------------------------------------|
 |-------------------------------------------------------------------|
 |----#-#-----#-#-----#-#-----#-#-----#-#-----#-#-----#-#-----#-#----|
 |-2--2-2--2--2-2--2--2-2--2--2-2--5--5-5--5--5-5--7--7-7--7--7-7----|
 |-0--0-0--0--0-0--0--0-0--0--0-0--3--3-3--3--3-3--5--5-5--5--5-5----|
 |-------------------------------------------------------------------|

 


 


 [1] [2] [3] [4] [1] [2] [3] [4]  

 
 |-------------------------------------------------------------------|
 |-------------------------------------------------------------------|
 |------------------------------------#-#-----#-#-----#-#-----#-#----|
 |----#-#-----#-#-----#-#-----#-#--7--7-7--7--7-7--7--7-7--7--7-7----|
 |-2--2-2--2--2-2--2--2-2--2--2-2--5--5-5--5--5-5--5--5-5--5--5-5----|
 |-0--0-0--0--0-0--0--0-0--0--0-0------------------------------------|

 


 


 [1] [2] [3] [4] [1] [2] [3] [4]  

 
 |-------------------------------------------------------------------|
 |-------------------------------------------------------------------|
 |----#-#-----#-#-----#-#-----#-#-----#-#-----#-#-----#-#-----#-#----|
 |-2--2-2--2--2-2--2--2-2--2--2-2--5--5-5--5--5-5--7--7-7--7--7-7----|
 |-0--0-0--0--0-0--0--0-0--0--0-0--3--3-3--3--3-3--5--5-5--5--5-5----|
 |-------------------------------------------------------------------|

 


 


 [1] [2] [3] [4] [1] [2] [3] [4]  

 
 |------------------------------------------------------------------|
 |------------------------------------------------------------------|
 |------------------------------------------------------------------|
 |----#-#-----#-#-----#-#-----#-#-----#-#-----#-#-----#-#-----#-#---|
 |-5--5-5--5--5-5--5--5-5--5--5-5--3--3-3--3--3-3--3--3-3--3--3-3---|
 |-3--3-3--3--3-3--3--3-3--3--3-3--1--1-1--1--1-1--1--1-1--1--1-1---|

 


 


 [1] [2] [3] [4] [1] [2] [3] [4]  

 
 |--------------------------------------------------------------------|
 |--------------------------------------------------------------------|
 |----#-#-----#-#-----#-#-----#-#-----#-#-----#-#------#--#------#--#-|
 |-5--5-5--5--5-5--5--5-5--5--5-5--8--8-8--8--8-8-10--10-10-10--10-10-|
 |-3--3-3--3--3-3--3--3-3--3--3-3--6--6-6--6--6-6--8---8--8--8---8--8-|
 |--------------------------------------------------------------------|

 


 


 [1] [2] [3] [4] [1] [2] [3] [4]  

 
 |------------------------------------------------------------------|
 |------------------------------------------------------------------|
 |------------------------------------------------------------------|
 |----#-#-----#-#-----#-#-----#-#-----#-#-----#-#-----#-#-----#-#---|
 |-5--5-5--5--5-5--5--5-5--5--5-5--3--3-3--3--3-3--3--3-3--3--3-3---|
 |-3--3-3--3--3-3--3--3-3--3--3-3--1--1-1--1--1-1--1--1-1--1--1-1---|

 


 


 [1] [2] [3] [4] [1] [2] [3] [4] [1]  

 
 |----------------------------------------------|
 |----------------------------------------------|
 |----#-#-----#-#-----#-#-----#-#--8----10------|
 |-5--5-5--5--5-5--5--5-5--5--5-5--8----10----5-|
 |-3--3-3--3--3-3--3--3-3--3--3-3--6----8-----5-|
 |--------------------------------------------3-|


Important: The song above is NOT stored on the Chordie server. The original song is hosted at www.guitartabs.cc. Chordie works as a search engine and provides on-the-fly formatting. Chordie does not index songs against artists'/composers' will. To remove this song please click here.

This song is displayed as text-only. Transposing and tuning is only available for chordpro-songs.
Rate #1 of 1 versions

Login - add to songbook

SHARE PAGE  




You need to log in to post comments