Guitar Tabs, Chords and Lyrics
Major upgrade!! After one year development the new version of Chordie is now online! Please give feedback.


Ain't That Just Like a Dream  Tim McGraw

"Ain't That Just Like A Dream"
Tim McGraw
CD: Not A Moment Too Soon
Track 10
Tabbed by Neil Crane
Intro
[C] [G] [C] [Em] [D] [C]  
 
 -------3---3-----------3---------------------------------3-|
 ---------3-3---------------------------------------------3-|
 -----0-----0---------------0-------------------2-4-2-----0-|
 ---2-------2-------------------------2---0-2-0-----------2-|
 -3---------3-----0-2-3---2---0---------2-------------0-2-3-|
 -------------3-3---------------3-2-0-----------------------|

[G] I popped the clutch on that old red Ford
Her [C]daddy would holler and run to the door
[G]Dust would fly as [Em]we flew down that [C]old gravel [D]driveway
[G] And lookin' back I [Em]can't believe[C] he let her run with a boy like me
[G] [Em] [C] 
[D]He said "You better get her back by ten or there'll be hell to pay"
[Am] I can still feel her lips on mine[G/B]
It's [C]all so real but [D]lost in time
Ain't that [G]just like a [C]dream
Runnin' [Em]wild and runnin' [C]free
We were [G]rebels chasin' [C]time against the [D]wind
Sometimes I [Em]long for just one [D]night
Of the [G]way I felt back [C]then
But ain't that [G]just like a [C]dream
D G* *begin interlude on G
It always ends
Interlude
[G] [C] [Em] [D] [C]  
 
 -----------3---------------------------------3-|
 ---------------------------------------------3-|
 ---------------0-------------------2-4-2-----0-|
 -------------------------2---0-2-0-----------2-|
 -----0-2-3---2---0---------2-------------0-2-3-|
 -3-3---------------3-2-0-----------------------|

[G]Saturday nights we could all be found
[C]Radios up and our windows rolled down
[G]Hearts on fire and [Em]holdin' hands [C]sights set on for[D]ever
[G] We never thought those [Em]days would end[C] we'd never be the same again
[G]Summer would be the l[Em]ast time we would [C]ever be to[D]gether
[Am] I never knew I'd wake up some day[G/B]
In a [C]brand new world so [D]far away
Ain't that [G]just like a [C]dream
Runnin' [Em]wild and runnin' [C]free
We were [G]rebels chasin' [C]time against the [D]wind
Sometimes I [Em]long for just one [D]night
Of the [G]way I felt back [C]then
But ain't that [G]just like a [C]dream
D G* *begin solo on G
It always ends
[G] [C] [Em] [C]  
 
 ----------------------------------------------------------|
 -10b12r10-------------------------------------------------|
 ----------12p9-12\-7b9r7-5---5-4-------------7-7----------|
 ---------------------------7-----7-5---5-7/9-----10-9-----|
 -------------------------------------7----------------10\-|
 ----------------------------------------------------------|

[G] [C] [D]  
 
 -7-7------------------------------------------------7-8-7-|
 -8-8b10r8-------8-8---8-8---------------7-7-8-10-10-------|
 ----------9-7-9-----9---9\----7-7---7-9-------------------|
 ---------------------------/7-----7-----------------------|
 ----------------------------------------------------------|
 ----------------------------------------------------------|

Sometimes I [Em]long for just one [D]night
Of the [G]way I felt back [C]then
But ain't that [G]just like a [C]dream
D G* C *with walk up like interlude
It always ends
Ain't that [G]just like a [C]dream
D G* *begin outro on G
It always ends
Outro
[G] [C] [Em] [D] [C]  
 
 -----------3---------------------------------3-|
 ---------------------------------------------3-|
 ---------------0-------------------2-4-2-----0-|
 -------------------------2---0-2-0-----------2-|
 -----0-2-3---2---0---------2-------------0-2-3-|
 -3-3---------------3-2-0-----------------------|


Important: The song above is NOT stored on the Chordie server. The original song is hosted at www.guitartabs.cc. Chordie works as a search engine and provides on-the-fly formatting. Chordie does not index songs against artists'/composers' will. To remove this song please click here.

Text color:
Chord color:
Chord grids: 
Font size:    
Page size: 

Am C D Em G G/B
Rate #1 of 3 versions

Login - add to songbook

SHARE PAGE  




You need to log in to post comments