Guitar Tabs, Chords and Lyrics
Server problems seems to be fixed. Chordie has been experiencing problems with songs disappearing. These issues now seems to be fixed, but still verifying the fix. If you find anything strange, please email admin@chordie.com.


Can't Be Really Gone  Tim McGraw

Can't Be Really Gone
Tim McGraw
CD: All I Want
Track 3
Tabbed by Neil Crane
Intro:
[F] [Bb] [C] [F] [Bb] [C]  
 
 ------------13-12--10-8------5-6--8-6--5---|
 -------------------------6-8-------------8-|
 -------------------------------------------|
 -------------------------------------------|
 -------------------------------------------|
 -------------------------------------------|

Her [F]hat is hanging by the door, the [Bb]one she bought in M[C]exico
It [F]blocked the wind, it stopped the rain, she'd [Bb]never leave that [C]one
So, she [Bb]can't be really [C]go[F]ne
The [F]shoes she bought on Christmas Eve, she [Bb]laughed and said they c[C]alled her name
It's [F]like they're waiting in the hall, for [Bb]her to slip them [C]on
So, she [Bb]can't be really [C]go[F]ne
[Dm] I don't know when she'll come back,[C] she must intend to come back
[Bb] I've seen the error of my [F]ways
[Dm] Don't waste the tears on me,[C] what more proof do you need
Just [Bb]look around the [C]room
So [Bb]much of her rem[C]ains
Her [F]book is lying on the bed, the [Bb]two of hearts to [C]mark her page
Now [F]who could ever walk away at [Bb]chapter twenty-[C]one
So, she [Bb]can't be really [C]go[F]ne
Solo:
[F] [Bb] [C]  
 
 ------5-6-6/8-8------8/10--8--6-5-6-6/8------10/13-12--13-|
 --6-8------------6-6---------------------5-5--------------|
 ----------------------------------------------------------|
 ----------------------------------------------------------|
 ----------------------------------------------------------|
 ----------------------------------------------------------|

Just [Bb]look around this [C]room
So [Bb]much of her rem[C]ains
Her [F]book is lying on the bed, the [Bb]two of hearts to [C]mark her page
Now [F]who could ever walk away, with [Bb]so much left un[C]done
So, she [Bb]can't be really [C]go[F]ne
(lead fill played of F chord)
 
 -13-12--8-10-|
 -------------|
 -------------|
 -------------|
 -------------|
 -------------|

So, she [Bb]can't be really [C]go[F]ne
Outro:
[F] [Bb] [C] [F] [Bb]  
[F]  
 
 ------------10-8-5h6-8-----5-6--8-6--5---------|
 -------------------------8--------------8------|
 -----------------------------------------------|
 -----------------------------------------------|
 -----------------------------------------------|
 -----------------------------------------------|


Important: The song above is NOT stored on the Chordie server. The original song is hosted at www.guitartabs.cc. Chordie works as a search engine and provides on-the-fly formatting. Chordie does not index songs against artists'/composers' will. To remove this song please click here.

Text color:
Chord color:
Chord grids: 
Font size:    
Page size: 

Bb C Dm F
Rate #2 of 2 versions

Login - add to songbook

SHARE PAGE  



You need to log in to post comments