Guitar Tabs, Chords and Lyrics
Major upgrade!! After one year development the new version of Chordie is now online! Please give feedback.


I Didn't Ask and She Didn't Say  Tim McGraw

I Didn't Ask And She Didn't Say
Tim McGraw
CD All I Want
Track 5
Tabbed by Neil Crane
Piano parts have been arranged into guitar lead
************************************************
intro
[G] [C] [G] [C]  
 
 -/10----------12\7-----------------------10-------12\10\7-----------------------|
 --------10-12-12\8-----------------------------10-12\10\8-----------------------|
 -----12-------------------------------------12----------------------------------|
 ------------------------5-----5-7-7h9-5-------------------------5-7-7/9-5h7-5---|
 --------------------5h7---5h7-------------------------------5h7---------------7-|
 --------------------------------------------------------------------------------|

[G] Fogged in in Dallas on my way to L.A.
Staring[C] up at the screen, all flights were delayed
When a [Am]voice from behind me asked,[C] stranger how have you [G]been?
Well I was [G]caught off guard when I saw her face
[C]Stumbled my way through an awkward embrace
But [Am]somehow I managed to s[C]ay, good to see you a[G]gain
We caught [D]up on old friends, caught up on old times
But [C]all through the small talk it kept [D]burning through my mind
Does she [C]think about the nights we spent on [D]Crystal [G]Lake,
[C]Wrapped up in a blanket till the [D]break of [Em]day
[D]So [C]many times I'd wonder, does [D]she think of [Em]me [D]that [C]way?[G] [C]
I didn't ask,[D] and she didn't say
[G] [C]  
 
 -/10-------10/12-10-------|
 --------------------------|
 -----12-------------12----|
 --------12-------------12-|
 --------------------------|
 --------------------------|

[G]Trading stories and pictures of kids,
Th[C]ings we're gonna do and things we never did
Til [Am]stranded in that moment,[C] not sure what to [G]say
Then [D]she broke the silence with her little shy smile
She [C]brought up the weather, but [D]all the while
I w[C]ondered if she thinks about[D] Jackson [G]Hole
[C]Nights beside the fire and [D]angels in the [Em]snow
[D]So [C]many times I'd wonder, does [D]she think of [Em]me [D]that [C]way?[G] [C]
I didn't ask,[D] and she didn't say
[C] [D] [G] [C]  
 
 ----/10-------------------------------10b12-10-12r10-------15-|
 -----------10-10b12-10----------------------------------------|
 --------12-------------11/12-11-12-------------------12-12----|
 -12--------------------------------12-------------------------|
 --------------------------------------------------------------|
 --------------------------------------------------------------|

[D]  
 
 -14b15r14-10-------------------------10/12-13----|
 -------------10----------------------------------|
 ----------------12b14r12----------12----------12-|
 -------------------------12-12/14----------------|
 -------------------------------------------------|
 -------------------------------------------------|

We [C]said our goodbyes, swore we'd [D]stay in touch
Then we [C]went our seperate ways knowing [Em]no one ever [D]does
But I [C]couldn't help but wonder as I[D] walked away
If [C]things had turned out different, where would [D]we be to[Em]day?
[D]So [C]many times I'd wonder, does [D]she think of [Em]me [D]that [C]way?[G] [C]
I didn't ask,[D] and she didn't say[G]
No [C]I didn't ask[D], and she didn't say
[G] [C] [G]  
 
 -10----------12\7----------------------------------|
 -------10-12-12\8----------------------------------|
 ----12---------------------------------------------|
 ----------------------5-7-7/9-7-5-----9-7-5--------|
 ------------------5h7-------------7----------5/7-5-|
 ---------------------------------------------------|


Important: The song above is NOT stored on the Chordie server. The original song is hosted at www.guitartabs.cc. Chordie works as a search engine and provides on-the-fly formatting. Chordie does not index songs against artists'/composers' will. To remove this song please click here.

Text color:
Chord color:
Chord grids: 
Font size:    
Page size: 

Am C D Em G
Rate #1 of 1 versions

Login - add to songbook

SHARE PAGE  




You need to log in to post comments