Guitar Tabs, Chords and Lyrics
Major upgrade!! After one year development the new version of Chordie is now online! Please give feedback.


Wouldn't Want It Any Other Way  Tim McGraw

"Wouldn't Want It Any Other Way"
Tim McGraw
CD: Not A Moment Too Soon
Track 3
Tabbed by Neil Crane
intro
[G] [D] [C]  
 
 -------------------------------------2/3/5-5\3-3---------------| steel guitar part
 --------------12-12-12\10-8-5/7\5/7\-3--/5-5\3-3-5-----0-------|
 ---------7/12---------------7------\---------------7\5---0---0-|
 -4/5-7/9-9/12----------------------------------------------2---|
 ---------------------------------------------------------------|
 ---------------------------------------------------------------|

Without [G]me maybe you'd [D]find somebody else
[C] A little wiser[D] with a lot more wealth
[G] And without you it's [D]true I'd be free
[C] To go chasing all my dreams [D]without any strings
But I [G]wouldn't want it [D]any other [C]way
[G] Having you to [D]come home to at the [C]end of every [D]day
[G] Your tender [D]touch puts a [C]smile back on my face
[G] Wouldn't want it [D]any other way
interlude
[G] [D] [C]  
 
 -------------------------------------2/3/5-5\3-3---------------| steel guitar part
 --------------12-12-12\10-8-5/7\5/7\-3--/5-5\3-3-5-----0-------|
 ---------7/12---------------7------\---------------7\5---0---0-|
 -4/5-7/9-9/12----------------------------------------------2---|
 ---------------------------------------------------------------|
 ---------------------------------------------------------------|

Hard [G]times may [D]never let up on us[C] and maybe all we'll ever have
Will [D]barely be enough and babe you [G]know
How [D]cold the wind can blow,[C] love's never let us down
When we [D]needed it the most
And I [G]wouldn't want it [D]any other [C]way
[G] Having you to [D]come home to at the [C]end of every [D]day
[G] Your tender [D]touch puts a [C]smile back on my face
[G] Wouldn't want it [D]any other [G]way
solo
[G] [D] [C] [G] [D] [C] [D] [C] [Am] [G]  
 
 ----15----14------------------------------------------------------------|
 ----15----15------------------------------------------------------------|
 ----------------------------------------------------------------5-7b9-7-|
 -17----16----14-14-16-17----14-14----------/9-7\5-9\7-7-5-4-5-7---------|
 -------------------------15----15-14-12\10------------------------------|
 ------------------------------------------------------------------------|

[G] Your tender [D]touch puts a [C]smile back on my face
[G] Wouldn't want it [D]any other [Em]way[D] [C]
[G] Wouldn't want it [D]any other [G]way
[G] [D] [C] Any other w[G]ay
 
 -----------------------------------------|
 -----15----15----------------------------|
 -----------------------------------------|
 -/17----16----14-14-16-17-14-------5-----|
 -----------------------------15\-x---7-5-|
 -----------------------------------------|

[D] Oh [C]girl, you know I love you more each [G]day
 
 -----------------------------------------------5-----|
 -----------------------------------------5-7-8---8---|
 ---------------------------------5-4-5/7-----------7-|
 -7b9r7-5-4-5-----------------------------------------|
 -----------------------------------------------------|
 -----------------------------------------------------|

[D] [C] Any other w[G]ay
 
 -5----------------------------------|
 ---8---5-7-8------------------------|
 -----7-------5-5\-------------------|
 ---------------------------7/9-7\5\-|
 ------------------------------------|
 ------------------------------------|

[D] [C]  
 
 ---------------------------------------------------------------------|
 ---------------------------------------------------------------------|
 -12-11-9-------------------------------------------------------------|
 ---------12\9-------9----------------------------------------12\9-12-|
 --------------10-12---10h12-10-------------------12p10-12/14---------|
 -------------------------------12p10-12-15p12-15---------------------|

G D C G (music fades)
 
 ----------------------------------------------------------12-14-15----------------------|
 ----------------------------------------------------13/15----------12-15----------------|
 -12-14-14----12-11-------11-12----------12-------12----------------------14b16-16-16r14-|
 ----------12-------12-14-------10-12/14----12/14----------------------------------------|
 ----------------------------------------------------------------------------------------|
 ----------------------------------------------------------------------------------------|


Important: The song above is NOT stored on the Chordie server. The original song is hosted at www.guitartabs.cc. Chordie works as a search engine and provides on-the-fly formatting. Chordie does not index songs against artists'/composers' will. To remove this song please click here.

Text color:
Chord color:
Chord grids: 
Font size:    
Page size: 

Am C D Em G
Rate #1 of 3 versions

Login - add to songbook

SHARE PAGE  



You need to log in to post comments