Guitar Tabs, Chords and Lyrics
Server problems seems to be fixed. Chordie has been experiencing problems with songs disappearing. These issues now seems to be fixed, but still verifying the fix. If you find anything strange, please email admin@chordie.com.


Ti scatterò una foto  Tiziano Ferro

Chords:
G DO E-7 D
E 3 0 0 2
[B]G [3]0 [1]0 [3]0 [3]2
D 0 2 2 0
A 2 3 2 x
E 3 x 0 x
Verse
Ricorderò e comunque anche se non vorrai
Ti sposerò perché non te l' ho detto mai
Come fa male cercare , trovarti poco dopo
E nell' ansia che ti perdo ti scatterò una foto?
 
 E|----------------------------|----------------------------------|
 B|----------3--------------3--|-1-0---------0------------0-------|
 G|----0---0---0----------0----|-----------4---5--------4---5-----|
 D|------0-------0------0------|---------5-------5----5-------5---|
 A|----------------------------|-------3------------3-------------|
 E|-------------------3--------|----------------------------------|

ti scatterò una foto?
 
 E|----------------------------|----------------------------------|
 B|-------3------------3-------|----------0---------0-------------|
 G|-----0---0--------0---0-----|-----0------0-----0---0-----------|
 D|---5-------5----5-------5---|---5---5------5p7-------7---------|
 A|----------------------------|-3--------------------------------|
 E|-0------------0-------------|----------------------------------|

eeeehhh.....
[G]Ricorderò e comunque e so che no[C]n vorrai
[E-7]Ti chiamerò perché tanto non ri[C]sponderai[D]
Come fa ridere adesso pensarti come a un gioco
E capendo che ti ho perso ti scatto un'altra foto
Perché piccola potresti andartene dalle mie mani
Ed i giorni da prima lontani saranno anni
E ti scorderai di me quando piove i profili e le case ricordano te
E sarà bellissimo perché gioia e dolore han lo stesso sapore con te
Io vorr[G]ei soltanto che la no[C]tte ora velocemente anda[E-7]sse
E tutto ciò che h[C]ai di me di [D]colpo non torn[G]asse
E voglio amore e [C]tutte le attenzioni che sai [E-7]dare
E voglio indiffe[C]renza semmai [D]mi vorrai fer[G]ire.. [C] [E-7]eeeeh.[C]..[D]
E riconobbi il tuo sguardo in quello di un passante
Ma pure avendoti qui ti sentirei distante
Cosa può significare sentirsi piccolo
Quando sei il più grande sogno il più grande incubo
Siamo figli di mondi diversi una sola memoria
Che cancella e disegna distratta la stessa storia
E ti scorderai di me quando piove i profili e le case ricordano te
E sarà bellissimo perché gioia e dolore han lo stesso sapore con te
Io vorrei soltanto che la notte ora velocemente andasse
E tutto ciò che hai di me di colpo non tornasse
E voglio amore e tutte le attenzioni che sai dare
E voglio indifferenza semmai mi vorrai ferire
[Bb]Non basta p[F]iù il ricordo [E-7]ora voglio il t[D]uo ritorno..[G].[C] [E-7] [C] [D]
E sarà bellissimo perché gioia e dolore han lo stesso sapore..
..lo stesso sapore con te
Io vorr[G]ei soltanto che la [C]notte ora velocemente anda[E-7]sse
E tutto ciò che [C]hai di me di co[D]lpo non torna[G]sse
E voglio amore e [C]tutte le attenzioni che sai d[E-7]are
E voglio indiffe[C]renza semmai [D]mi vorrai ferir[G]e
E voglio indiffe[C]renza semmai [D]mi vorrai ferir[G]e.

Important: The song above is NOT stored on the Chordie server. The original song is hosted at www.guitartabs.cc. Chordie works as a search engine and provides on-the-fly formatting. Chordie does not index songs against artists'/composers' will. To remove this song please click here.

Text color:
Chord color:
Chord grids: 
Font size:    
Page size: 

B Bb C D E-7 F G
Rate #1 of 3 versions

Login - add to songbook

SHARE PAGE  



You need to log in to post comments