Guitar Tabs, Chords and Lyrics
Major upgrade!! After one year development the new version of Chordie is now online! Please give feedback.


I Wish You Well  Tom Cochrane

Subject: c/cochrane_tom/i_wish_you_well.crd
Date: Fri, 30 May 1997 15:23:15 -
From: Paul & Lynne Bagnall
I Wish You Well
By
Tom Cochrane
The song starts with this riff:
 
 e|----5------5-----5-----5-----3-----3-----3-----3---------------|
 b|--3------3-----3-----3-----3-----3-----3-----3-----------------|
 g|---------------------------------------------------------------|
 d|-0-----0-----0-----0-----0-----0-----0-----0-------------------|
 a|---------------------------------------------------------------|
 E|---------------------------------------------------------------|

After that the song is just these chords:
[D]I'm gonna check my scars at home
[G]gonna cash my chips and roam
[D]gonna walk before you fade to blac[G]k.[A]
[D]Gonna write a new resume
[G]gonna write you off the page
[D]gonna take what we might take away.[G] [A]
[A]And you might find a brighter day
[G]you might find a brighter day. oh
[D]And in another year. The pain [G]will disappear
[D] [G] [A] 
And I will look back on this life as if it were a scene.
[A]Somebody wrote about you and me
[G]Somebody made about you and me
[D]I wish you well.
This is the entire song except for a little riff that follows the chorus
And it is:
 
 |-----------------------------|------------|
 |-----------------------------|------------|
 |--2-0------------------------|-2-0--------|
 |-------4-2-0-2-2h4p2-0-------|-----4-2-0--|

From bagnall@planet.eon.net Sat Jul 19 14:58:49 1997
Date: Sat, 05 Jul 1997 16:43:16 -0600
From: Paul & Lynne Bagnall
To: Guitar@olga.net
Subject: TAB: I Wish You Well, by :Tom Cochrane
I Wish You Well
By
Tom Cochrane
The song starts with this riff:
Played on a clean electric
 
 e|----5------5-----5-----5-----3-----3-----3-----3---------------|
 b|--3------3-----3-----3-----3-----3-----3-----3-----------------|
 g|---------------------------------------------------------------|
 d|-0-----0-----0-----0-----0-----0-----0-----0-------------------|
 a|---------------------------------------------------------------|
 E|---------------------------------------------------------------|

After that the song is just these chords:
[D]I'm gonna check my scars at home
[G]gonna cash my chips and roam
[D]gonna walk before you fade to blac[G]k.[A]
[D]Gonna write a new resume
[G]gonna write you off the page
[D]gonna take what we might take away.[G] [A]
[A]And you might find a brighter day
[G]you might find a brighter day. oh
[D]And in another year. The pain [G]will disappear
[D]And I will look back on this life as if it were a scen[G]e.[A]
[A]Somebody wrote about you and me
[G]Somebody made about you and me
[D]I wish you well.
This is the entire song except for a little riff that follows the chorus
And it is:
 
 |---------------------------|------------|
 |---------------------------|------------|
 |--2-0----------------------|-2-0--------|
 |-------4-2-0-2-2h4p2-0-----|-----4-2-0--|


Important: The song above is NOT stored on the Chordie server. The original song is hosted at www.guitartabs.cc. Chordie works as a search engine and provides on-the-fly formatting. Chordie does not index songs against artists'/composers' will. To remove this song please click here.

Text color:
Chord color:
Chord grids: 
Font size:    
Page size: 

A D G
Rate #1 of 4 versions

Login - add to songbook

SHARE PAGE  




You need to log in to post comments