Guitar Tabs, Chords and Lyrics
Server problems seems to be fixed. Chordie has been experiencing problems with songs disappearing. These issues now seems to be fixed, but still verifying the fix. If you find anything strange, please email admin@chordie.com.


500 dagar om året  Tomas Ledin

Songwriter: Tomas Ledin
Tabbed by: Jeppe
[E/C#]  
 
 e-------|
 B-------|
 G-------|
 D-------|
 A--4----|
 E--0----|

Intro
[E] [A]  
 
 e---------------------------------------------------|
 B--799-9-9-7--9-9-9-9---91010-10-10-9--10-10-10-10--|
 G--999-9-9-9--9-9-9-9---99-9--9--9--9--9--9--9--9---|
 D--999-9-9-9--9-9-9-9---77-7--7--7--7--7--7--7--7---| x 2
 A---------------------------------------------------|
 E---------------------------------------------------|

Verse 1
Jag kan [E]komma på mig själv, hur jag [E/C#]skrattar till ibland
Hur gick [E]det här egentligen till, hon [E/C#]satte mitt liv i brand
Jag hade s[E]larvat några år, tagit k[E/C#]ärleken som den kom
Bott t[E]illsammans några gånger, hängt [E/C#]ute en del, sett mig om
Bridge 1
Men sen [F#m]plötsligt när vi träffades, en [B]dag som vilken som helst
Stod det [F#m]klart nu har jag kommit hem, j[B]a det var som att bli frälst
Jaaaaaa
Chorus
Har hennes [A]leende med mig [B]500 dagar om [E]året
Bär hennes [A]solsken inom mig [E]varthän jag [B]går
Har hennes [A]leende med mig [B]500 dagar om [E]året
Kan inte [A]tänka mig nån annan [E]som du säkert [B]förstår
Det [A]finns inget mer för en [B]man, hon [E]är [B]lyc[A]kan
500 dagar om året
Interlude
[E] [A]  
 
 e---------------------------------------------------|
 B--799-9-9-7--9-9-9-9---91010-10-10-9--10-10-10-10--|
 G--999-9-9-9--9-9-9-9---99-9--9--9--9--9--9--9--9---|
 D--999-9-9-9--9-9-9-9---77-7--7--7--7--7--7--7--7---|
 A---------------------------------------------------|
 E---------------------------------------------------|

Verse 2
Ja, det [E]händer att jag undrar vad är det [E/C#]här egentligen
Här [E]ligger jag vid hennes sida, [A]här mellan lakanen
Bridge 2
Och när hon [F#m]smeker mig i sömnen med sin[B] utsträckta hand
[F#m]Tackar jag försynens änglar, som [B]styr mig in mot land
Jaaaaaa
Chorus
Har hennes [A]leende med mig [B]500 dagar om [E]året
Bär hennes [A]solsken inom mig [E]varthän jag [B]går
Har hennes [A]leende med mig [B]500 dagar om [E]året
Kan inte [A]tänka mig nån annan [E]som du säkert [B]förstår
Det [A]finns inget mer för en [B]man, hon [E]är [B]lyc[A]kan
[A]Ohhhh[B]h [F#m]Ohhhh[B]h
500 dagar om året
Interlude
[E]  
 
 e---------------------|
 B--799-9-9-7--9-9-9-9-|
 G--999-9-9-9--9-9-9-9-|
 D--999-9-9-9--9-9-9-9-|
 A---------------------|

Solo
A |D |B |E |C#m |F#m |D |D |B |B |B |B
Jaaaaa
Chorus
Har hennes [A]leende med mig [B]500 dagar om [E]året
Bär hennes [A]solsken inom mig [E]varthän jag [B]går
Har hennes [A]leende med mig [B]500 dagar om [E]året
Kan inte [A]tänka mig nån annan [E]som du säkert [B]förstår
Det [A]finns inget mer för en [B]man, hon [E]är [B]lyc[A]kan
[A]Ohhhh[B]h [F#m]Ohhhh[B]h
500 dagar om året
Interlude
[E] [A]  
 
 e---------------------------------------------------|
 B--799-9-9-7--9-9-9-9---91010-10-10-9--10-10-10-10--|
 G--999-9-9-9--9-9-9-9---99-9--9--9--9--9--9--9--9---|
 D--999-9-9-9--9-9-9-9---77-7--7--7--7--7--7--7--7---| x 4
 A---------------------------------------------------|
 E---------------------------------------------------|

End on an E

Important: The song above is NOT stored on the Chordie server. The original song is hosted at www.guitartabs.cc. Chordie works as a search engine and provides on-the-fly formatting. Chordie does not index songs against artists'/composers' will. To remove this song please click here.

Text color:
Chord color:
Chord grids: 
Font size:    
Page size: 

A B E E/C# F#m
Rate #2 of 2 versions

Login - add to songbook

SHARE PAGE  




You need to log in to post comments