Guitar Tabs, Chords and Lyrics
Server problems seems to be fixed. Chordie has been experiencing problems with songs disappearing. These issues now seems to be fixed, but still verifying the fix. If you find anything strange, please email admin@chordie.com.


Kyss mig som du gjorde då  Tomas Ledin

Songwriter: Tomas Ledin
Tabbed by: Jeppe
Intro
Riff 1
let ring
 
 e---------------------------------------------------------|
 B---------------------------------------------------------|
 G----4-----4----4------4-----4------4----4------4---------|
 D-------2-----------2-----0----0-2-----------2------------|
 A-2---2------4----4--------------------4---4--------------|
 E---------------------------------------------------------|

Verse 1
Riff 1
Jag minns det som igår
Ser dig över allt
Känner doften av ditt svallande hår
Jag kan höra dina steg
Hur du öppnar min dörr
Hör skrattet när du smyger dig på
Bridge 1
Jag [C#m]kunde aldrig tro det
Men jag [F#m]saknar din närhet
[E/G#]Saknar varje ögonb[A]lick
Chorus
K[B]yss mig som du gjorde [E][A]
Ah, du kommer väll ihåg[E] ?[A]
Kyss mig som du gjorde [C#m]
Låt våra [F#m]läppar få mötas[A] [B]
Interlude
Riff 2 (this one is played during the chorus too)
 
 e--------------------------------------------------|
 B--12--12---12-------------------------------------|
 G--14b-14b--14-----/14--13-------------------------|
 D--------------14----------------------------------|
 A--------------------------------------------------|
 E--------------------------------------------------|

E |A |E |A
Verse 2
Riff 1 (bass guitar strums an E)
Jag ser dig alldeles klart
Påminns varje dag
Går omkring här i min lägenhet
Telefonen står tyst
Och min soffa saknar dig
Verkar vänta på vad som sak ske
Bridge 2
Jag [C#m]kunde inte ana det
Men jag [F#m]längtar i mitt hjärta
[E/G#]Längtar varje vaken seku[A]nd
Chorus
K[B]yss mig som du gjorde [E][A]
Ah, du kommer väll ihåg[E] ?[A]
Kyss mig som du gjorde [C#m]
Låt våra [F#m]läppar få mötas[A] [B]
Bridge 3
Jag är inte den [A]första eller sista [B]patetiska dumbommen
Den [A]enda som ingenting har f[E/B]örst[E/B]ört
Inte heller den [A]första eller sista som [B]missat alla tågen
Men nu [C#m]kommer jag springa[B]ndes
Ja, helt [A]andfådd och stap[E/G#]plandes
S[F#m]tår jag här f[A]ramför d[B]ig
Interlude
Riff 2
E |A |E |A
Chorus
Kyss mig som du gjorde [E][A]
Ah, du kommer väll ihåg[E] ?[A]
Kyss mig som du gjorde [C#m]
Låt våra [F#m]läppar få mötas[A] [B] x 2
End on a repeated series of E and A chords.

Important: The song above is NOT stored on the Chordie server. The original song is hosted at www.guitartabs.cc. Chordie works as a search engine and provides on-the-fly formatting. Chordie does not index songs against artists'/composers' will. To remove this song please click here.

Text color:
Chord color:
Chord grids: 
Font size:    
Page size: 

A B C#m E E/B E/G# F#m
Rate #1 of 1 versions

Login - add to songbook

SHARE PAGE  



You need to log in to post comments