Guitar Tabs, Chords and Lyrics
Login is temporarily disabled for some users. Do not panic. Will be back in an hour or two. DO NOT REREGISTER!!


Dancing in the Moonlight  Toploader

This is my own version of the song.
Capo 3rd fret
Intro tab - finger picked
[Dm] [G] [C] [G/B] [Am]  
 
 |--------1---3-3-----------------------0--------|
 |------3-3-3-3---3---1-1---0-0---1-1-----1---1--|
 |----2-------0-----0-0---0-0---0-2---2-----2----|
 |--0--------------------------------------------|
 |--------------------3-----2-----0--------------|
 |-----------------------------------------------|

[Dm] [G] [C] [G/B] [Am]  
 
 |--------1---3-3--------------------------------|
 |------3-3-3-3---3---1-1---0-0---1--------------|
 |----2-------0-----0-0---0-0---0-2--------------|
 |--0--------------------------------------------|
 |--------------------3-----2-----0--------------|
 |-----------------------------------------------|

I tend to carry this pattern through the whole song with slight variation in the chorus,
singing the lyrics over and around it and varying it however you like!
It sounds just as good strummed though, just try to go with the rhythm of the song.
Here's the chords to help with timing.
We get it [Dm]on most every night[G]
when that mo[C]on is b[G/B]ig and br[Am]ight
its a superna[Dm]tural delight[G]
everybody's[C] dancing[G/B] in the moon[Am]light
Fill: Dm G C G/B Am
everybody he[Dm]re is out of sight[G]
they dont ba[C]rk and t[G/B]hey dont bi[Am]te
they keep things lo[Dm]ose they keep it [G]tight
everybodys d[C]ancing i[G/B]n the moonl[Am]ight
dan[Dm]cing in the m[G]oonlight
everybodys fee[C]ling wa[G/B]rm and br[Am]ight
its such a [Dm]fine and natura[G]l sight
everybodys da[C]ncing i[G/B]n the moon[Am]light
Fill: Dm G C G/B Am
we like our[Dm] fun and we never [G]fight
you cant [C]dance and [G/B]stay upti[Am]ght
its a supe[Dm]rnatural delig[G]ht
everybody was d[C]ancing in[G/B] the moon[Am]light
dan[Dm]cing in the m[G]oonlight
everybodys fee[C]ling wa[G/B]rm and br[Am]ight
its such a [Dm]fine and natura[G]l sight
everybodys da[C]ncing i[G/B]n the moon[Am]light
Fill: Dm G C G/B Am
We get it [Dm]on most every night[G]
when that mo[C]on is b[G/B]ig and br[Am]ight
its a superna[Dm]tural delight[G]
everybody's[C] dancing[G/B] in the moon[Am]light
da[Dm]ncing in the [G]moonlight
everybodys fee[C]ling wa[G/B]rm and br[Am]ight
its such a [Dm]fine and natura[G]l sight
everybodys da[C]ncing i[G/B]n the moon[Am]light

Important: The song above is NOT stored on the Chordie server. The original song is hosted at www.guitartabs.cc. Chordie works as a search engine and provides on-the-fly formatting. Chordie does not index songs against artists'/composers' will. To remove this song please click here.

Text color:
Chord color:
Chord grids: 
Font size:    
Page size: 

Am C Dm G G/B
Rate #0 of 17 versions

Login - add to songbook

SHARE PAGE  




You need to log in to post comments